Home » A » Ataris »

Ataris - In This Diary Tabs

Artists:  A B C D E F G H I J K L M N O P Q R S T U V W X Y Z # 

In This Diary Tabs

(ver. 2) Click to play this song!
Ataris
The Ataris “in this diary”

Intro Palm muted
E|---------------------------------|
B|---------------------------------|
G|-5-5-5-5-5-5-5-5-5-5-5-5-5-5-5-5-|
D|-6-6-6-6-6-6-6-6-6-6-6-6-6-6-6-6-| 
A|-6-6-6-6-6-6-6-6-6-6-6-6-6-6-6-6-|
E|---------------------------------|

E|---------------------------------|
B|---------------------------------|
G|-8-8-8-8-8-8-8-8-5-5-5-5-5-5-5-5-|
D|-6-6-6-6-6-6-6-6-6-6-6-6-6-6-6-6-| 
A|-6-6-6-6-6-6-6-6-6-6-6-6-6-6-6-6-|
E|---------------------------------|

E|---------------------------------|
B|---------------------------------|
G|-6-6-6-6-6-6-6-6-5-5-5-5—5-5-5-5-|
D|-6-6-6-6-6-6-6-6-6-6-6-6-6-6-6-6-| 
A|-6-6-6-6-6-6-6-6-6-6-6-6-6-6-6-6-|
E|---------------------------------|

E|---------------------------------|
B|---------------------------------|
G|-6-6-6-6-6-6-6-6-6-6-6-6-6-6-6-6-|
D|-6-6-6-6-6-6-6-6-6-6-6-6-6-6-6-6-| 
A|-6-6-6-6-6-6-6-6-6-6-6-6-6-6-6-6-|
E|---------------------------------|
Verse palm muted
E|---------------------------------|
B|---------------------------------|
G|---------------------------------|
D|---------------------------------| 
A|-3-3-3-3-3-3-3-3-3-3-3-3-3-3-3-3-|
E|-1-1-1-1-1-1-1-1-1-1-1-1-1-1-1-1-|
“Here in this diary
E|--------------------------------|
B|--------------------------------|
G|--------------------------------|
D|-8-8-8-8-8-8-8-8-8-8-8-8-8-8-8-8----------------| 
A|-6-6-6-6-6-6-6-6-6-6-6-6-6-6-6-6----------------|
E|--------------------------------|
I write you visions of my
E|---------------------------------|
B|---------------------------------|
G|---------------------------------|
D|---------------------------------| 
A|-6-6-6-6-6—6-6-6-6-6-6-6-6-6-6-6-|
E|-4-4-4-4-4-4-4-4-4-4-4-4-4-4-4-4-|
Summer, it was the
E|--------------------------------|
B|--------------------------------|
G|--------------------------------|
D|-6-6-6-6-6-6-6-6-6-6-6-6—6-6-6-6|
A|-4-4-4—4-4-4—4-4-4-4-4-4-4-4-4-4|
E|--------------------------------|
Best I ever had. There were 
E|---------------------------------|
B|---------------------------------|
G|---------------------------------|
D|---------------------------------| 
A|-3-3-3-3-3-3-3-3-3-3-3-3-3-3-3-3-|
E|-1-1-1-1-1-1-1-1-1-1-1-1-1-1-1-1-|

(guitar 2 fill)
E|---------------------------------|
B|---------------------------------|
G|--5---------5------5--------5----|
D|----6--------6-------6--------6--| 
A|---------------------------------|
E|---------------------------------|


Choruses and sing alongs
E|--------------------------------|
B|--------------------------------|
G|--------------------------------|
D|-8-8-8-8-8-8-8-8-8-8-8-8-8-8-8-8----------------| 
A|-6-6-6-6-6-6-6-6-6-6-6-6-6-6-6-6----------------|
E|--------------------------------|

(guitar 2)
E|---------------------------------|
B|---------------------------------|
G|--8---------8------8--------8----|
D|----6--------6-------6--------6--| 
A|---------------------------------|
E|---------------------------------|

And that unspoken feeling, that right now is all that
(stop palm muting)
E|-------------------------------------------------|
B|-------------------------------------------------|
G|-6-6--6-6-6--5-5--5-5-5—-6—6--6-6-6--5-5--5-5-5--|
D|-6-6--6-6-6--6-6--6-6-6--6-6-—6-6-6--6-6--6-6-6--|
A|-4-4--4—4-4--4—4--4-4-4--4-4--4-4-4—-4-4—-4-4-4--|
E|-------------------------------------------------|
Matters

Repeat verse 
“All the nights we stayed up talking
Listening to 80's songs
And quoting lines from all those movies
That we know
It still brings a smile to my face”


E|---------------------------------|
B|---------------------------------|
G|---------------------------------|
D|-8-8-8-8-8-8-8-8-8-8-8-8-8-8-8-8-| 
A|-8-8-8-8-8-8-8-8-8-8-8-8-8—8-8-8-|
E|-6-6-6-6-6-6-6-6-6-6-6-6-6-6-6-6-|
I guess when it comes
 E|-------------------------------|
B|--------------------------------|
G|-6-6-6-6-6-6-6-6-6-6-6-6-6-6-6-6|
D|-6-6-6-6-6-6-6-6-6-6-6-6—6-6-6-6|
A|-4-4-4—4-4-4—4-4-4-4-4-4-4-4-4-4|
E|--------------------------------|
Down to it
E|---------------------------------|
B|---------------------------------|
G|------------------8-8-8-8-8-8-8-8|
D|-3-3-3-3-3-3-3-3--8-8-8-8-8-8-8-8| 
A|-3-3-3-3-3-3-3-3--6-6-6-6-6-6-6-6|
E|-1-1-1-1-1-1-1-1-----------------|
Being  Grown up isn’t

E|---------------------------------|
B|---------------------------------|
G|------------------6-6-6-6-6-6-6-6|
D|-6-6-6-6-6-6-6-6--6-6-6-6-6-6-6-6| 
A|-6-6-6-6-6-6-6-6--4-4-4-4-4-4-4-4|
E|-4-4-4-4-4-4-4-4-----------------|
Half as fun as growing up

E|---------------------------------|
B|---------------------------------|
G|------------------8-8-8-8-8-8-8-8|
D|-3-3-3-3-3-3-3-3--8-8-8-8-8-8-8-8| 
A|-3-3-3-3-3-3-3-3--6-6-6-6-6-6-6-6|
E|-1-1-1-1-1-1-1-1-----------------|
These are the best years of our 

E|--------------------------------|
B|--------------------------------|
G|-6-6-6-6-6-6-6-6-6-6-6-6-6-6-6-6|
D|-6-6-6-6-6-6-6-6-6-6-6-6-6-6-6-6| 
A|-4-4-4-4-4-4-4-4-4-4-4-4-4-4-4-4|
E|--------------------------------|
Lives
E|---------------------------------|
B|---------------------------------|
G|------------------8-8-8-8-8-8-8-8|
D|-3-3-3-3-3-3-3-3--8-8-8-8-8-8-8-8| 
A|-3-3-3-3-3-3-3-3--6-6-6-6-6-6-6-6|
E|-1-1-1-1-1-1-1-1-----------------|
The only thing that matters is just

E|---------------------------------|
B|---------------------------------|
G|------------------6-6-6-6-6-6-6-6|
D|-6-6-6-6-6-6-6-6--6-6-6-6-6-6-6-6| 
A|-6-6-6-6-6-6-6-6--4-4-4-4-4-4-4-4|
E|-4-4-4-4-4-4-4-4-----------------|
Following your heart

E|---------------------------------|
B|---------------------------------|
G|------------------8-8-8-8-8-8-8-8|
D|-3-3-3-3-3-3-3-3--8-8-8-8-8-8-8-8| 
A|-3-3-3-3-3-3-3-3--6-6-6-6-6-6-6-6|
E|-1-1-1-1-1-1-1-1-----------------|
And eventually you’ll finally get it right 

(bridge)*2
E|--------------------------------|
B|--------------------------------|
G|-6-6-6-6-6-6-6-6-4-4-4-4-4-4-4-4|
D|-6-6-6-6-6-6-6-6-6-6-6-6-6-6-6-6| 
A|-4-4-4-4-4-4-4-4-4-4-4-4-4-4-4-4|
E|--------------------------------|

Repeat Verse and Chorus
Breaking into hotel swimming pools
And wreaking havoc on our world
Hanging out at truck stops
Just to pass the time
The black tops singing me to sleep

Lighting fireworks in parking lots
Illuminate the blackest nights
Sharing cokes under this moonlit summer sky
2015 Riverside, it's time to say goodbye

Get on the bus, it's time to go
Being grown up isn't half as fun as growing up
These are the best days of our lives
The only thing that matters is just following your heart
And eventually you'll finally get it right

Intro Palm muted twice
Chorus twice
Huzzah! You’re done!
            
Submit corrections

↑ Back to top | Tablatures and chords for acoustic guitar and electric guitar, ukulele, drums are parodies/interpretations of the original songs. You may use it for private study, scholarship, research or language learning purposes only