Home » A » Ataris »

Ataris - Saddest Song Tabs

Artists:  A B C D E F G H I J K L M N O P Q R S T U V W X Y Z # 

Saddest Song Tabs

(ver. 1) Click to play this song!
Ataris
"(1)
This is the piano part for The Saddest Song by The Ataris.  It fits in throughout basically the whole song.




E----5h6p5--------3--1-------5h6p5--------8--6---------3--5--6---
B-----------6--3--------------------6--3-------------------------
G----------------------------------------------------------------
D----------------------------------------------------------------
A----------------------------------------------------------------
E----------------------------------------------------------------

E---10h11p10---------8--6----------------------------------------
B-------------11--8----------------------------------------------
G--------------------------5--7-----8----------------------------
D----------------------------------------------------------------
A----------------------------------------------------------------
E----------------------------------------------------------------
"            
Submit corrections

↑ Back to top | Tablatures and chords for acoustic guitar and electric guitar, ukulele, drums are parodies/interpretations of the original songs. You may use it for private study, scholarship, research or language learning purposes only