Home » A » Ataris »

Ataris - In This Diary Bass

Artists:  A B C D E F G H I J K L M N O P Q R S T U V W X Y Z # 

In This Diary Bass

(ver. 1) Click to play this song!
Ataris
*************************************************
		The Ataris- In This Diary
*************************************************

Song-In This Diary
Band-The Ataris
Tuning-DGCF

Intro
Guitar,no bass unitll :10
		
		
Verse			*=16 TIMES
F--*-------*--------------------------------------------------------|
C--*-------*---------------------1*---------------------------------|
G--*-------*----------------1*--------------------------------------|
D--*---10\-*----3*----1*--------------------------------------------|
Beginning ^ of song only

Instrumental Thingy
F------------------------------------------------------------------|
C-1-1-111-0-00-000-1-1-111-0-00-000--------------------------------|
G------------------------------------------------------------------|
D------------------------------------------------------------------|

Pre-Chorus
F------------------------------------------------------------------|
C------------------------------------------------------------------|
G-3-3-3-5-55-555-6-6-6-8-88-888------------------------------------|
D------------------------------------------------------------------|

Chorus
F------------------------------------------------------------------|
C-------------------------1-11-111----------------1-11-111-111-----|
G------------------1-1-1-------------------------------------------|
D--3-3-3-1-11-111------------------3-3-3-1-11-111------------------|

Bridge 
Get It Right..........           *=16 TIMES (DO THE 1 ON THE C 16 TIMES NOT THE 0 AND THE 1
F---------------------------------------------------------------------|
C-1~~---5-55-5-55-555-3-33-3-33-333-1-11-1-11-111-01*--/15\(OPTIONAL)-|
G---------------------------------------------------------------------|
D---------------------------------------------------------------------|

Outro
F------------------------------------------------------------------|
C------------------------1-11-111---------------1-11-1-11-111------|
G-----------------1-1-1--------------------------------------------|
D--3-3-3-1-11-111-----------------3-3-3-1-11-111-------------------|

Outro (cont.)
F------------------------------------------------------------------|
C--------------------1-1-1-111-----------------1-11-111-11-1-------|
G--------------1-1-1-----------------------------------------------|
D-%33-1-11-111------------------3-3-3-1-11-111---------------------|

Outro (cont.)
F------------------------------------------------------------------|
C------------------------1-1-1-10--------------------------1-11-111|
G-----------------1-11-1----------31-----------------1-1-1---------|
D--3-3-3-1-11-111---------------------3-3-3-1-11-111---------------|

Outro (cont.)
F------------------------------------------------------------------|
C------------------------1-1-1-10---------------------1~~----------|
G-----------------1-11-1----------31-------------------------------|
D--3-3-3-1-11-111---------------------3-3-3-1-11-1111--------------|
					(Slow Down)

Order of Song
Verse: 1 and 1/2 times
Instrumental: 1 time
Verse: 2 and 1/2 times
Instrumental: 1 time
Pre-Chorus: 1 time
Chorus: 1 and 3/4 times
Verse: 1 and 1/2 times
Instrumental: 1 time
Verse: 1 and 1/2 times
Instrumental:1 time
Pre Chorus: 1 time
Chorus: 1 and 3/4 times
Bridge: 1 time
Outro: 1 time

If you have any corrections please e-mail me. Thank you
            
Submit corrections

↑ Back to top | Tablatures and chords for acoustic guitar and electric guitar, ukulele, drums are parodies/interpretations of the original songs. You may use it for private study, scholarship, research or language learning purposes only