Home » A » Andrew Gold »

Andrew Gold - Spooky Scary Skeletons Tabs

Artists:  A B C D E F G H I J K L M N O P Q R S T U V W X Y Z # 

Spooky Scary Skeletons Tabs

(ver. 2) Click to play this song!
Andrew Gold
[verse 1]
 
e|-3-3-2-2--------------3-3-2-2-------3-3-2-2----------0----------3-3-2-2----|
B|---------0--3-0----0------------0------------0-3-0-3----2-3--0-------------|
G|---------------------------------------------------------------------------|
D|---------------------------------------------------------------------------|
A|---------------------------------------------------------------------------|
E|---------------------------------------------------------------------------|
 
e|--------3-3-2-2----2-3-3-2-2-------------------0-------2-3-2-3--5-7-5-3-2-3|
B|-0-3-0----------0-------------0-3-0-----0-0-3----2-3-0---------------------|
G|---------------------------------------------------------------------------|
D|---------------------------------------------------------------------------|
A|---------------------------------------------------------------------------|
E|---------------------------------------------------------------------------|
 
 
[Verse 2]
 
e|-2--0--------------0---2------0---2--3--5--3------0--2--3--7--6--2-2-3-3---|
B|-------3-------3-----------3-------------------3---------------------------|
G|---------------------------------------------------------------------------|
D|---------------------------------------------------------------------------|
A|---------------------------------------------------------------------------|
E|---------------------------------------------------------------------------|
 
 
[Chorus]
 
e|-2-2---------------3-3-2-2-----2-3-3-2-2---------------0---------3-3--2-2--|
B|------0--3--0---0-----------0------------0-3-0--0--3-0---2-3-0-------------|
G|---------------------------------------------------------------------------|
D|---------------------------------------------------------------------------|
A|---------------------------------------------------------------------------|
E|---------------------------------------------------------------------------|
 
e|-------3-3-2-2-----3-3-2-2-------------------2-----------------------------|
B|-0-3-0----------0-----------0-3-0--0---3---------3----0--------------------|
G|---------------------------------------------------------------------------|
D|---------------------------------------------------------------------------|
A|---------------------------------------------------------------------------|
E|---------------------------------------------------------------------------|
            
Submit corrections

↑ Back to top | Tablatures and chords for acoustic guitar and electric guitar, ukulele, drums are parodies/interpretations of the original songs. You may use it for private study, scholarship, research or language learning purposes only