Home » A » Andrew Gold »

Andrew Gold - Spooky Scary Skeletons Tabs

Artists:  A B C D E F G H I J K L M N O P Q R S T U V W X Y Z # 

Spooky Scary Skeletons Tabs

(ver. 1) Click to play this song!
Andrew Gold
[Intro]
e|--------------------------------------------------|
B|--------------------------------------------------|
G|-----12-12-11-11------------12-12-11-11-----------|
D|-----------------9-12-9---9-------------9---------|
A|--------------------------------------------------|
E|--------------------------------------------------|

e|--------------------------------------------------|
B|--------------------------------------------------|
G|-----12-12-11-11----------------------------------|
D|-----------------9-12-9--9-12-14-11-12-9----------|
A|--------------------------------------------------|
E|--------------------------------------------------|

[Verse]
e|---------------------------------------------------------|
B|---------------------------------------------------------|
G|-----11--12--11--12--14--16--14--12--11--12--11-9--------|
D|---------------------------------------------------12----|
A|---------------------------------------------------------|
E|---------------------------------------------------------|
-
e|--------------------------------------------------------------------|
B|--------------------------------------------------------------------|
G|---------9--11---9--11--12--14--12---------9--11---12--16--15-------|
D|-----12-------------------------------------------------------------|
A|--------------------------------------------------------------------|
E|--------------------------------------------------------------------|

e|-------------------------------------------------------------------------------------|
B|-------------------------------------------------------------------------------------|
G|-----11--12-12-11-11--------------12-12-11-11------------11---12-12-11-11------------|
D|---------------------9--12--9--9--------------9--------------------------------------|
A|-------------------------------------------------------------------------------------|
E|-------------------------------------------------------------------------------------|

e|---------------------------------------------------------------------------------------------|
B|---------------------------------------------------------------------------------------------|
G|-------------------------9---------------12--12--11--11----------------12--12--11--11--------|
D|-----9---12--9-----9--3------11--12--9-------------------9--12--9---9------------------9-----|
A|---------------------------------------------------------------------------------------------|
E|---------------------------------------------------------------------------------------------|

[Outro]
e|--------------------------------------------------------------------------------|
B|--------------------------------------------------------------------------------|
G|---12------12-------11--------11------------------------------------------------|
D|---------------------------------------9--------12-------9-------------9--------|
A|--------------------------------------------------------------------------------|
E|--------------------------------------------------------------------------------|

e|---------------------------------------------------------------------------|
B|---------------------------------------------------------------------------|
G|-------------------9-------------------------------------------------------|
D|-----12-------------------------11-------------12-------------9------------|
A|---------------------------------------------------------------------------|
E|---------------------------------------------------------------------------|
            
Submit corrections

↑ Back to top | Tablatures and chords for acoustic guitar and electric guitar, ukulele, drums are parodies/interpretations of the original songs. You may use it for private study, scholarship, research or language learning purposes only