Home » A » Andrew Gold »

Andrew Gold - Spooky Scary Skeletons Bass

Artists:  A B C D E F G H I J K L M N O P Q R S T U V W X Y Z # 

Spooky Scary Skeletons Bass

(ver. 1) Click to play this song!
Andrew Gold
Tuning: BEADG

G|------------------------------------------------------------------------------------------------|
D|------------------------------------------------------------------------------------------------|
A|------------------------------------------------------------------------------------------2-----|
E|3-----------2-----------------------------------3-----------2-----------------------2-----------|
B|------------------------0-----------3-----------------------------------0-----3-----------------|

G|------------------------------------------------------------------------------------------------|
D|------------------------------------------------------------------------------------------------|
A|------------------------------------------------------------------------------------2-----------|
E|3-----------2-----------------------------------3-----------2-----------------2-----------------|
B|------------------------0-----------3-----------------------------------3-----------------------|

0:13

G|------------------------------------------------------------------------------------------------|.
D|------------------------------------------------------------------------------------------------|.
A|------------------------------------------------------------------------------------------2-----|.
E|3-----------2-----------------------------------3-----------2-----------------------2-----------|.
B|------------------------0-----------3-----------------------------------0-----3-----------------|.
                                                                                                   . x2
G|------------------------------------------------------------------------------------------------|.
D|------------------------------------------------------------------------------------------------|.
A|------------------------------------------------------------------------------------2-----------|.
E|3-----------2-----------------------------------3-----------2-----------------2-----------------|.
B|------------------------0-----------3-----------------------------------3-----------------------|.

0:38

G|------------------------------------------------------------------------------------------------|
D|------------------------------------------------------------------------------------------------|
A|------------------------------------------------------------------------------------------------|
E|------------------------------------------------------------------------3-----------3---------3-|
B|3-----------3-----------2-----------2---------2-0-----------0-----------------------------------|

G|------------------------------------------------------------------------------------------------|
D|------------------------------------------------------------------------------------------------|
A|------------------------------------------------------------------------------------------------|
E|0-----------0-----------------------------------------------------------------2-----2-----------|
B|------------------------1-----------1-----------2-----------2-----------------------------------|

0:50

G|------------------------------------------------------------------------------------------------|
D|------------------------------------------------------------------------------------------------|
A|------------------------------------------------------------------------------------------2-----|
E|3-----------2-----------------------------------3-----------2-----------------------2-----------|
B|------------------------0-----------3-----------------------------------0-----3-----------------|

G|------------------------------------------------------------------------------------------------|
D|------------------------------------------------------------------------------------------------|
A|------------------------------------------------------------------------------------2-----------|
E|3-----------2-----------------------------------3-----------2-----------------2-----------------|
B|------------------------0-----------3-----------------------------------3-----------------------|

1:03

G|------------------------------------------------------------------------------------------------|
D|------------------------------------------------------------------------------------------2-----|
A|3-----------2-----------------------------------3-----------2-----------------------2-----------|
E|------------------------0-----------3-----------------------------------0-----3-----------------|
B|------------------------------------------------------------------------------------------------|

G|------------------------------------------------------------------------------------------------|
D|------------------------------------------------------------------------------------------------|
A|------------------------------------------------------------------------------------2-----------|
E|3-----------2-----------------------------------3-----------2-----------------2-----------------|
B|------------------------0-----------3-----------------------------------3-----------------------|

1:15

G|------------------------------------------------------------------------------------------------|
D|------------------------------------------------------------------------------------------------|
A|------------------------------------------------------------------------------------------------|
E|------------------------------------------------------------------------3-----------3---------3-|
B|3-----------3-----------2-----------2---------2-0-----------0-----------------------------------|

G|------------------------------------------------------------------------------------------------|
D|------------------------------------------------------------------------------------------------|
A|------------------------------------------------------------------------------------------------|
E|0-----------0-----------------------------------------------------------------2-----2-----------|
B|------------------------1-----------1-----------2-----------2-----------------------------------|

1:28

G|------------------------------------------------------------------------------------------------|
D|------------------------------------------------------------------------------------------------|
A|------------------------------------------------------------------------------------------2-----|
E|3-----------2-----------------------------------3-----------2-----------------------2-----------|
B|------------------------0-----------3-----------------------------------0-----3-----------------|

G|------------------------------------------------------------------------------------------------|
D|------------------------------------------------------------------------------------------------|
A|------------------------------------------------------------------------------------2-----------|
E|3-----------2-----------------------------------3-----------2-----------------2-----------------|
B|------------------------0-----------3-----------------------------------3-----------------------|

1:40

G|------------------------------------------------------------------------------------------------|
D|------------------------------------------------------------------------------------------------|
A|------------------------------------------------------------------------------------------2-----|
E|3-----------2-----------------------------------3-----------2-----------------------2-----------|
B|------------------------0-----------3-----------------------------------0-----3-----------------|

G|------------------------------------------------------------------------------------------------|
D|------------------------------------------------------------------------------------------------|
A|------------------------------------------------------------------------------------------------|
E|3-----------2-----------------------------------3-----------3-----------2-----------2-----------|
B|------------------------0-----------3-----------------------------------------------------------|

G|-------------------|
D|-------------------|
A|------------2------|
E|------2------------|
B|0------------------|

1:54

G|------------------------------------------------------------------------------------------------|
D|------------------------------------------------------------------------------------------------|
A|------------------------------------------------------------------------------------------2-----|
E|3-----------2-----------------------------------3-----------2-----------------------2-----------|
B|------------------------0-----------3-----------------------------------0-----3-----------------|

G|------------------------------------------------------------------------------------------------|
D|------------------------------------------------------------------------------------------------|
A|------------------------------------------------------------------------------------2-----------|
E|3-----------2-----------------------------------3-----------2-----------------2-----------------|
B|------------------------0-----------3-----------------------------------3-----------------------|            
Submit corrections

↑ Back to top | Tablatures and chords for acoustic guitar and electric guitar, ukulele, drums are parodies/interpretations of the original songs. You may use it for private study, scholarship, research or language learning purposes only