» » »

Amen - Price Of Reality Tabs

Artists:  A B C D E F G H I J K L M N O P Q R S T U V W X Y Z # 

Price Of Reality Tabs

(ver. 3) Click to play this song!
Amen
 Rating:
4/5 (4 votes)

 Price Of Reality lessons Tabs too difficult? Try these video lessons and learn fast
 
                theres alot of feedback at the start. so turn up oloud and do that.
this song is in drop D - D,A,D,G,B,e
"Its just a holiday for you"
"Another Holiday for You"
INTRO
E|-----------|
B|-----------|
G|-----------|
D|-----------|
A|-0-1-0-1-0-|
D|-0-1-0-1-0-|

there is nothing to play in the verse
e|-----------------------------------------------------------------|               B|-----------------------------------------------------------------|
G|------------------------------------------------------------
D|------------------------------------------------------------
A|-0-0-0-0-0-0-0-0-3-3-3-3-3-3-3-3-5-5-5-5-5-5-5-5-1-1-1-1-1-1
D|-0-0-0-0-0-0-0-0-3-3-3-3-3-3-3-3-5-5-5-5-5-5-5-5-1-1-1-1-1-1

CHORUS:

e|----------------------------------------------------------
B|----------------------------------------------------------
G|----------------------------------------------------------
D|-0-0-0-0-0-0-0-0-3-3-3-3-3-3-3-3-5-5-5-5-5-5-5-5-1-1-1-1-1
A|-0-0-0-0-0-0-0-0-3-3-3-3-3-3-3-3-5-5-5-5-5-5-5-5-1-1-1-1-1
D|-0-0-0-0-0-0-0-0-3-3-3-3-3-3-3-3-5-5-5-5-5-5-5-5-1-1-1-1-1

OUTRO:
A|-1-0-0-0-0-0-3--1-0-0-0-0-0-3                                                    D|-1-0-0-0-0-0-3--1-0-0-0-0-0-3
Finished....
H
I
V
            
Submit corrections


        Price Of Reality lessons Hard to play? Try these video lessons and learn fast Price Of Reality lessons
        
↑ Back to top | Tablatures and chords for acoustic guitar and electric guitar, ukulele, drums are parodies/interpretations of the original songs. You may use it for private study, scholarship, research or language learning purposes only