» » »

Amen - Price Of Reality Tabs

Artists:  A B C D E F G H I J K L M N O P Q R S T U V W X Y Z # 

Price Of Reality Tabs

(ver. 2) Click to play this song!
Amen
 Rating:
4/5 (4 votes)

 Price Of Reality lessons Tabs too difficult? Try these video lessons and learn fast
 
                AMEN - THE PRICE OF REALITY

Drop to D Tuning

INTRO: (Use Phaser)
1]-----
2]-10-- 
3]-12--
4]-----
5]-----
6]-----


INTRO FILL:
1]------------
2]------------
3]------------
4]------------
5]-0-1p0-1p0--
6]-0-1p0-1p0--

PRE-CHORUS: (All Palm Muted)
1]------------------------------------------------------------------ 
2]------------------------------------------------------------------
3]------------------------------------------------------------------
4]------------------------------------------------------------------
5]------------------------------------------------------------------
6]-0-0-0-0-0-0-0-0-3-3-3-3-3-3-3-3-5-5-5-5-5-5-5-5-1-1-1-1-1-1-1-1--


CHORUS:

1]------------------------------------------------------------------
2]------------------------------------------------------------------
3]------------------------------------------------------------------
4]-0-0-0-0-0-0-0-0-3-3-3-3-3-3-3-3-5-5-5-5-5-5-5-5-1-1-1-1-1-1-1-1--
5]-0-0-0-0-0-0-0-0-3-3-3-3-3-3-3-3-5-5-5-5-5-5-5-5-1-1-1-1-1-1-1-1--
6]-0-0-0-0-0-0-0-0-3-3-3-3-3-3-3-3-5-5-5-5-5-5-5-5-1-1-1-1-1-1-1-1--

OUTRO:
1]-------------------------------
2]-------------------------------
3]-------------------------------
4]-------------------------------
5]-1p0-0-0-0-0-3--1p0-0-0-0-0-3--
6]-1p0-0-0-0-0-3--1p0-0-0-0-0-3--
            
Submit corrections


        Price Of Reality lessons Hard to play? Try these video lessons and learn fast Price Of Reality lessons
        
↑ Back to top | Tablatures and chords for acoustic guitar and electric guitar, ukulele, drums are parodies/interpretations of the original songs. You may use it for private study, scholarship, research or language learning purposes only