» » »

Amen - Down Human Tabs

Artists:  A B C D E F G H I J K L M N O P Q R S T U V W X Y Z # 

Down Human Tabs

(ver. 3) Click to play this song!
Amen
 Rating:
4/5 (4 votes)

 Down Human lessons Tabs too difficult? Try these video lessons and learn fast
 
                
GUITARISTS: Paul Fig & Sonny Mayo / Rich Jones & Matt Montgomery
TUNING: Drop D ( D A D G B E )


INTRO 0:04/0:22

|-----------------------------------------
|-----------------------------------------
|----7--5----8--7--5--------7--5----8--7--
|-----------------------------------------
|-----------------------------------------
|-----------------------------------------

|----------------------------------------------
|----------------------------------------------
|----7--5----8--7--5--------7--5----8--7--10^--
|----------------------------------------------
|----------------------------------------------
|----------------------------------------------


MAIN RIFF 0:22/0:38

|------------------------------------
|------------------------------------
|------------------------------------
|--3-0---0-0---3-0---0-0-0----3-0-0--
|--3-0---0-0---3-0---0-0-0----3-0-0--
|--3-0---0-0---3-0---0-0-0----3-0-0--

|----------------------------------
|----------------------------------
|----------------------------------
|--3-0---0-0---3-0---0-0-0----(3)--
|--3-0---0-0---3-0---0-0-0----(3)--
|--3-0---0-0---3-0---0-0-0----(3)--

|------------------------------------
|------------------------------------
|------------------------------------
|--3-0---0-0---3-0---0-0-0----3-0-0--
|--3-0---0-0---3-0---0-0-0----3-0-0--
|--3-0---0-0---3-0---0-0-0----3-0-0--

|----------------------------------
|----------------------------------
|----------------------------------
|--3-0---0-0---3-0---0-0-0----(5)--
|--3-0---0-0---3-0---0-0-0----(5)--
|--3-0---0-0---3-0---0-0-0----(5)--


FILL 0:38/0:56

|------------------------------------
|------------------------------------
|------------------------------------
|------------------------------------
|--1-1--x-x--1---1------1-1--x-x--1--
|--1-1--x-x--1---1------1-1--x-x--1-- x3

|-------------------------------------
|-------------------------------------
|-------------------------------------
|---------------------------------5^--
|--1-1--x-x--1---1------1-1--x-x------
|--1-1--x-x--1---1------1-1--x-x------


CHORUS 0:56/1:13

|---------------------------------
|---------------------------------
|---------------------------------
|--0------3-3-3-3-3-3-3--6-6-6-6--
|--0------3-3-3-3-3-3-3--6-6-6-6--
|--0------3-3-3-3-3-3-3--6-6-6-6-- x3

|--------------------------
|--------------------------
|--------------------------
|--0------1-1-1-1-1-1-1-1--
|--0------1-1-1-1-1-1-1-1--
|--0------1-1-1-1-1-1-1-1--

|---------------------------------
|---------------------------------
|--7------5-5-5-5-5-5-5--8-8-8-8--
|--5------3-3-3-3-3-3-3--6-6-6-6--
|--5------3-3-3-3-3-3-3--6-6-6-6--
|--5------3-3-3-3-3-3-3--6-6-6-6-- x3

|---------------
|---------------
|---------------
|--1--0-0-0--3--
|--1--0-0-0--3--
|--1--0-0-0--3--


MAIN RIFF VARIATION 1:13/1:31

|-------------------------------------
|-------------------------------------
|-------------------------------------
|-------------------------------------
|-------------------------------------
|--3p0-0-0-0-0--3p0-0-0-0-0--3p0-0-0--
       . . . .      . . . .      . .

|---------------------------------------
|---------------------------------------
|---------------------------------------
|---------------------------------------
|---------------------------------------
|--3p0-0-0-0-0--3p0-0-0-0-0--3p0-0-0-3-- BOTH x3
       . . . .      . . . .      . . .

|-------------------------------------
|-------------------------------------
|-------------------------------------
|-------------------------------------
|-------------------------------------
|--3p0-0-0-0-0--3p0-0-0-0-0--3p0-0-0--
       . . . .      . . . .      . .

|---------------------------------------
|---------------------------------------
|---------------------------------------
|---------------------------------------
|---------------------------------------
|--3p0-0-0-0-0--3p0-0-0-0-0--3p0-0-0-0--
       . . . .      . . . .


MAIN RIFF 1:31/1:48

|------------------------------------
|------------------------------------
|------------------------------------
|--3-0---0-0---3-0---0-0-0----3-0-0--
|--3-0---0-0---3-0---0-0-0----3-0-0--
|--3-0---0-0---3-0---0-0-0----3-0-0--

|----------------------------------
|----------------------------------
|----------------------------------
|--3-0---0-0---3-0---0-0-0----(3)--
|--3-0---0-0---3-0---0-0-0----(3)--
|--3-0---0-0---3-0---0-0-0----(3)--

|------------------------------------
|------------------------------------
|------------------------------------
|--3-0---0-0---3-0---0-0-0----3-0-0--
|--3-0---0-0---3-0---0-0-0----3-0-0--
|--3-0---0-0---3-0---0-0-0----3-0-0--

|----------------------------------
|----------------------------------
|----------------------------------
|--3-0---0-0---3-0---0-0-0----(5)--
|--3-0---0-0---3-0---0-0-0----(5)--
|--3-0---0-0---3-0---0-0-0----(5)--

|------------------------------------
|------------------------------------
|------------------------------------
|--3-0---0-0---3-0---0-0-0----3-0-0--
|--3-0---0-0---3-0---0-0-0----3-0-0--
|--3-0---0-0---3-0---0-0-0----3-0-0--

|----------------------------------
|----------------------------------
|----------------------------------
|--3-0---0-0---3-0---0-0-0----(3)--
|--3-0---0-0---3-0---0-0-0----(3)--
|--3-0---0-0---3-0---0-0-0----(3)--

|------------------------------------
|------------------------------------
|------------------------------------
|--3-0---0-0---3-0---0-0-0----3-0-0--
|--3-0---0-0---3-0---0-0-0----3-0-0--
|--3-0---0-0---3-0---0-0-0----3-0-0--

|----------------------------------
|----------------------------------
|----------------------------------
|--3-0---0-0---3-0---0-0-0----(5)--
|--3-0---0-0---3-0---0-0-0----(5)--
|--3-0---0-0---3-0---0-0-0----(5)--


FILL 1:48/2:05

|------------------------------------
|------------------------------------
|------------------------------------
|------------------------------------
|--1-1--x-x--1---1------1-1--x-x--1--
|--1-1--x-x--1---1------1-1--x-x--1-- x3

|-------------------------------------
|-------------------------------------
|-------------------------------------
|---------------------------------5^--
|--1-1--x-x--1---1------1-1--x-x------
|--1-1--x-x--1---1------1-1--x-x------


CHORUS 2:05/2:22

|---------------------------------
|---------------------------------
|---------------------------------
|--0------3-3-3-3-3-3-3--6-6-6-6--
|--0------3-3-3-3-3-3-3--6-6-6-6--
|--0------3-3-3-3-3-3-3--6-6-6-6-- x3

|--------------------------
|--------------------------
|--------------------------
|--0------1-1-1-1-1-1-1-1--
|--0------1-1-1-1-1-1-1-1--
|--0------1-1-1-1-1-1-1-1--

|---------------------------------
|---------------------------------
|--7------5-5-5-5-5-5-5--8-8-8-8--
|--5------3-3-3-3-3-3-3--6-6-6-6--
|--5------3-3-3-3-3-3-3--6-6-6-6--
|--5------3-3-3-3-3-3-3--6-6-6-6-- x3

|---------------
|---------------
|---------------
|--1--0-0-0--3--
|--1--0-0-0--3--
|--1--0-0-0--3--


BREAK 2:22/2:48

|-------------------------------------18--
|----------------16-----15-----18---------
|-----------------------------------------
|--12-----13------------------------------
|-----------------------------------------
|-----------------------------------------


BREAK 2:48/3:06

|--------------------------------------
|--------------------------------------
|--------------------------------------
|--0-0-0-0--3-3-3-3--5-5-5-5--6-6-6-6--
|--0-0-0-0--3-3-3-3--5-5-5-5--6-6-6-6--
|--0-0-0-0--3-3-3-3--5-5-5-5--6-6-6-6--

|--------------------------------------
|--------------------------------------
|--------------------------------------
|--0-0-0-0--3-3-3-3--6-6-6-6--8-8-8-8--
|--0-0-0-0--3-3-3-3--6-6-6-6--8-8-8-8--
|--0-0-0-0--3-3-3-3--6-6-6-6--8-8-8-8--

|--------------------------------------------------------------------------------------
|--------------------------------------------------------------------------------------
|--------------------------------------------------------------------------------------
|--0-0-0-0--3-3-3-3--5-5-5-5--6-6-6-6--8-8-8-8--10-10-10-10--11-11-11-11--12-12-12-12--
|--0-0-0-0--3-3-3-3--5-5-5-5--6-6-6-6--8-8-8-8--10-10-10-10--11-11-11-11--12-12-12-12--
|--0-0-0-0--3-3-3-3--5-5-5-5--6-6-6-6--8-8-8-8--10-10-10-10--11-11-11-11--12-12-12-12-- ALL x2


MAIN RIFF 3:06/3:23

|------------------------------------
|------------------------------------
|------------------------------------
|--3-0---0-0---3-0---0-0-0----3-0-0--
|--3-0---0-0---3-0---0-0-0----3-0-0--
|--3-0---0-0---3-0---0-0-0----3-0-0--

|----------------------------------
|----------------------------------
|----------------------------------
|--3-0---0-0---3-0---0-0-0----(3)--
|--3-0---0-0---3-0---0-0-0----(3)--
|--3-0---0-0---3-0---0-0-0----(3)--

|------------------------------------
|------------------------------------
|------------------------------------
|--3-0---0-0---3-0---0-0-0----3-0-0--
|--3-0---0-0---3-0---0-0-0----3-0-0--
|--3-0---0-0---3-0---0-0-0----3-0-0--

|----------------------------------
|----------------------------------
|----------------------------------
|--3-0---0-0---3-0---0-0-0----(5)--
|--3-0---0-0---3-0---0-0-0----(5)--
|--3-0---0-0---3-0---0-0-0----(5)--

|------------------------------------
|------------------------------------
|------------------------------------
|--3-0---0-0---3-0---0-0-0----3-0-0--
|--3-0---0-0---3-0---0-0-0----3-0-0--
|--3-0---0-0---3-0---0-0-0----3-0-0--

|----------------------------------
|----------------------------------
|----------------------------------
|--3-0---0-0---3-0---0-0-0----(3)--
|--3-0---0-0---3-0---0-0-0----(3)--
|--3-0---0-0---3-0---0-0-0----(3)--

|------------------------------------
|------------------------------------
|------------------------------------
|--3-0---0-0---3-0---0-0-0----3-0-0--
|--3-0---0-0---3-0---0-0-0----3-0-0--
|--3-0---0-0---3-0---0-0-0----3-0-0--

|----------------------------------
|----------------------------------
|----------------------------------
|--3-0---0-0---3-0---0-0-0----(5)--
|--3-0---0-0---3-0---0-0-0----(5)--
|--3-0---0-0---3-0---0-0-0----(5)--


CHORUS 3:23/3:39

|---------------------------------
|---------------------------------
|--7------5-5-5-5-5-5-5--8-8-8-8--
|--5------3-3-3-3-3-3-3--6-6-6-6--
|--5------3-3-3-3-3-3-3--6-6-6-6--
|--5------3-3-3-3-3-3-3--6-6-6-6-- x3

PAUSE

|---------------------------------
|---------------------------------
|--7------5-5-5-5-5-5-5--8-8-8-8--
|--5------3-3-3-3-3-3-3--6-6-6-6--
|--5------3-3-3-3-3-3-3--6-6-6-6--
|--5------3-3-3-3-3-3-3--6-6-6-6-- x3


OUTRO 3:39/3:43

|-------------------------------------
|-------------------------------------
|-------------------------------------
|-------------------------------------
|-------------------------------------
|--3p0-0-0-0-0--3p0-0-0-0-0--3p0-0-0--
       . . . .      . . . .      . .

|--------------------------
|--------------------------
|--------------------------
|--------------------------
|--------------------------
|--3p0-0-0-0-0--3p0-0-0-0--
       . . . .      . . .




^  = Bend
~  = Tidle
h  = Hammer On
p  = Pull Off
/  = Slide
() = Natural Harmonic
.  = Palm Mute
x  = String Mute
            
Submit corrections


        Down Human lessons Hard to play? Try these video lessons and learn fast Down Human lessons
        
↑ Back to top | Tablatures and chords for acoustic guitar and electric guitar, ukulele, drums are parodies/interpretations of the original songs. You may use it for private study, scholarship, research or language learning purposes only