» » »

Amen - Down Human Tabs

Artists:  A B C D E F G H I J K L M N O P Q R S T U V W X Y Z # 

Down Human Tabs

(ver. 2) Click to play this song!
Amen
 Rating:
4/5 (4 votes)

 Down Human lessons Tabs too difficult? Try these video lessons and learn fast
 
                
intro: = bass and drums

Amen

"down human"

verse G1
|-6--4---------|
|-6--4---------|
|-6--4---------|

G2
g|-9--|
d|-11-|
a|-11-|
d|----|

Listen to song for timing!


pre-chorus
|--3-3--3--3-3--3-|
|--3-3--3--3-3--3-| X4
|--3-3--3--3-3--3-|
      .....pm.....
chorus
|-0-3-5--3-5--3--1-|
|-0-3-5--3-5--3--1-|
|-0-3-5--3-5--3--1-|

RiffA
|-0-3-5-6--0-3-6-8--0-3-5-6-7-8-9-10-|
|-0-3-5-6--0-3-6-8--0-3-5-6-7-8-9-10-|
|-0-3-5-6--0-3-6-8--0-3-5-6-7-8-9-10-|
 
It should be right, but some of it sounds a bit off.
Listen to the song for the timing and strumming patterns!

      x x  magic face!
    -[-|-]-
            
Submit corrections


        Down Human lessons Hard to play? Try these video lessons and learn fast Down Human lessons
        
↑ Back to top | Tablatures and chords for acoustic guitar and electric guitar, ukulele, drums are parodies/interpretations of the original songs. You may use it for private study, scholarship, research or language learning purposes only