» » »

Amen - Ck Killer Tabs

Artists:  A B C D E F G H I J K L M N O P Q R S T U V W X Y Z # 

Ck Killer Tabs

(ver. 3) Click to play this song!
Amen
 Rating:
4/5 (4 votes)

 Ck Killer lessons Tabs too difficult? Try these video lessons and learn fast
 
                GUITARISTS: Paul Fig & Sonny Mayo / Rich Jones & Matt Montgomery
TUNING: Drop D ( D A D G B E )


INTRO 0:04/0:14

|---------------------------------------
|---------------------------------------
|---------------------------------------
|--0--0--0--0--0--0--0--0--0---------0--
|--0--0--0--0--0--0--0--0--0---------0--
|--0--0--0--0--0--0--0--0--0---------0--


MAIN RIFF 0:14/0:24

|----------------------------------------
|----------------------------------------
|-----------------------8-8-8--5-5-------
|--0-0-0--6-6-6--3-3-3--8-8-8--5-5--3-3--
|--0-0-0--6-6-6--3-3-3--6-6-6--3-3--3-3--
|--0-0-0--6-6-6--3-3-3--------------3-3-- x4


VERSE 0:24/0:26

|-----------------------------------
|-----------------------------------
|-----------------------------------
|--0-0-0-0-0-0-0-0-0-0-0-0-0-0-0-0--
|--0-0-0-0-0-0-0-0-0-0-0-0-0-0-0-0--
|--0-0-0-0-0-0-0-0-0-0-0-0-0-0-0-0--
   x x x x x x x x x x x x x x x x


VERSE 0:26/0:29

|---------------------------------------------------------
|---------------------------------------------------------
|---------------------------------------------------------
|--5--5--5---8--8--8---7--7--7---10-10-10--9--9---12--12--
|--3--3--3---6--6--6---5--5--5---8--8--8---7--7---10--10--
|---------------------------------------------------------

VERSE 0:29/0:31

|-----------------------------------
|-----------------------------------
|-----------------------------------
|--0-0-0-0-0-0-0-0-0-0-0-0-0-0-0-0--
|--0-0-0-0-0-0-0-0-0-0-0-0-0-0-0-0--
|--0-0-0-0-0-0-0-0-0-0-0-0-0-0-0-0--
   x x x x x x x x x x x x x x x x

VERSE 0:31/0:34

|-------------------------------------
|-------------------------------------
|--3-2-0-3-2-0-3-2-0-3-2-0-3-2-0------
|--3-2-0-3-2-0-3-2-0-3-2-0-3-2-0------
|-------------------------------------
|-------------------------------------

VERSE 0:33/0:35

|-----------------------------------
|-----------------------------------
|-----------------------------------
|--0-0-0-0-0-0-0-0-0-0-0-0-0-0-0-0--
|--0-0-0-0-0-0-0-0-0-0-0-0-0-0-0-0--
|--0-0-0-0-0-0-0-0-0-0-0-0-0-0-0-0--
    x x x x x x x x x x x x x x x x

VERSE 0:35/0:38

|---------------------------------------------------------
|---------------------------------------------------------
|---------------------------------------------------------
|--5--5--5---8--8--8---7--7--7---10-10-10--9--9---12--12--
|--3--3--3---6--6--6---5--5--5---8--8--8---7--7---10--10--
|---------------------------------------------------------


MAIN RIFF 0:38/0:47

|----------------------------------------
|----------------------------------------
|-----------------------8-8-8--5-5-------
|--0-0-0--6-6-6--3-3-3--8-8-8--5-5--3-3--
|--0-0-0--6-6-6--3-3-3--6-6-6--3-3--3-3--
|--0-0-0--6-6-6--3-3-3--------------3-3-- x4


CHORUS 0:47/1:05

|-----------------------------------------------------------------------
|-----------------------------------------------------------------------
|-----------------------------------------------------------------------
|--0-0-0-0-0-0-0-0-3-3-3-3-3-3-3-3-6-6-6-6-6-6-6-6-8-8-8-8-10-10-10-10--
|--0-0-0-0-0-0-0-0-3-3-3-3-3-3-3-3-6-6-6-6-6-6-6-6-8-8-8-8-10-10-10-10--
|--0-0-0-0-0-0-0-0-3-3-3-3-3-3-3-3-6-6-6-6-6-6-6-6-8-8-8-8-10-10-10-10--

|-------------------------------------------------------------------
|-------------------------------------------------------------------
|-------------------------------------------------------------------
|--0-0-0-0-0-0-0-0-3-3-3-3-3-3-3-3-6-6-6-6-6-6-6-6-6-6-6-6-6-6-6-6--
|--0-0-0-0-0-0-0-0-3-3-3-3-3-3-3-3-6-6-6-6-6-6-6-6-6-6-6-6-6-6-6-6--
|--0-0-0-0-0-0-0-0-3-3-3-3-3-3-3-3-6-6-6-6-6-6-6-6-6-6-6-6-6-6-6-6--

|-----------------------------------------------------------------------
|-----------------------------------------------------------------------
|-----------------------------------------------------------------------
|--0-0-0-0-0-0-0-0-3-3-3-3-3-3-3-3-6-6-6-6-6-6-6-6-8-8-8-8-10-10-10-10--
|--0-0-0-0-0-0-0-0-3-3-3-3-3-3-3-3-6-6-6-6-6-6-6-6-8-8-8-8-10-10-10-10--
|--0-0-0-0-0-0-0-0-3-3-3-3-3-3-3-3-6-6-6-6-6-6-6-6-8-8-8-8-10-10-10-10--

|-------------------------------------
|-------------------------------------
|-------------------------------------
|--0-0-0-0-0-0-0-0-3-3-3-3-3-3-3-3-6--
|--0-0-0-0-0-0-0-0-3-3-3-3-3-3-3-3-6--
|--0-0-0-0-0-0-0-0-3-3-3-3-3-3-3-3-6--


VERSE 1:05/1:11

|---------------
|---------------
|--------8-5----
|--0-6-3-8-5-3--
|--0-6-3-6-3-3--
|--0-6-3-----3-- x2

VERSE 1:11/1:13

|-----------------------------------
|-----------------------------------
|-----------------------------------
|--0-0-0-0-0-0-0-0-0-0-0-0-0-0-0-0--
|--0-0-0-0-0-0-0-0-0-0-0-0-0-0-0-0--
|--0-0-0-0-0-0-0-0-0-0-0-0-0-0-0-0--
    x x x x x x x x x x x x x x x x

VERSE 1:13/1:15

|---------------------------------------------------------
|---------------------------------------------------------
|---------------------------------------------------------
|--5--5--5---8--8--8---7--7--7---10-10-10--9--9---12--12--
|--3--3--3---6--6--6---5--5--5---8--8--8---7--7---10--10--
|---------------------------------------------------------

VERSE 1:15/1:17

|-----------------------------------
|-----------------------------------
|-----------------------------------
|--0-0-0-0-0-0-0-0-0-0-0-0-0-0-0-0--
|--0-0-0-0-0-0-0-0-0-0-0-0-0-0-0-0--
|--0-0-0-0-0-0-0-0-0-0-0-0-0-0-0-0--
    x x x x x x x x x x x x x x x x

VERSE 1:17/1:20

|-------------------------------------
|-------------------------------------
|--3-2-0-3-2-0-3-2-0-3-2-0-3-2-0------
|--3-2-0-3-2-0-3-2-0-3-2-0-3-2-0------
|-------------------------------------
|-------------------------------------

VERSE 1:20/1:22

|-----------------------------------
|-----------------------------------
|-----------------------------------
|--0-0-0-0-0-0-0-0-0-0-0-0-0-0-0-0--
|--0-0-0-0-0-0-0-0-0-0-0-0-0-0-0-0--
|--0-0-0-0-0-0-0-0-0-0-0-0-0-0-0-0--
    x x x x x x x x x x x x x x x x

VERSE 1:22/1:24

|---------------------------------------------------------
|---------------------------------------------------------
|---------------------------------------------------------
|--5--5--5---8--8--8---7--7--7---10-10-10--9--9---12--12--
|--3--3--3---6--6--6---5--5--5---8--8--8---7--7---10--10--
|---------------------------------------------------------


MAIN RIFF 1:24/1:34

|----------------------------------------
|----------------------------------------
|-----------------------8-8-8--5-5-------
|--0-0-0--6-6-6--3-3-3--8-8-8--5-5--3-3--
|--0-0-0--6-6-6--3-3-3--6-6-6--3-3--3-3--
|--0-0-0--6-6-6--3-3-3--------------3-3-- x4


CHORUS 1:34/1:53

|-----------------------------------------------------------------------
|-----------------------------------------------------------------------
|-----------------------------------------------------------------------
|--0-0-0-0-0-0-0-0-3-3-3-3-3-3-3-3-6-6-6-6-6-6-6-6-8-8-8-8-10-10-10-10--
|--0-0-0-0-0-0-0-0-3-3-3-3-3-3-3-3-6-6-6-6-6-6-6-6-8-8-8-8-10-10-10-10--
|--0-0-0-0-0-0-0-0-3-3-3-3-3-3-3-3-6-6-6-6-6-6-6-6-8-8-8-8-10-10-10-10--

|-------------------------------------------------------------------
|-------------------------------------------------------------------
|-------------------------------------------------------------------
|--0-0-0-0-0-0-0-0-3-3-3-3-3-3-3-3-6-6-6-6-6-6-6-6-6-6-6-6-6-6-6-6--
|--0-0-0-0-0-0-0-0-3-3-3-3-3-3-3-3-6-6-6-6-6-6-6-6-6-6-6-6-6-6-6-6--
|--0-0-0-0-0-0-0-0-3-3-3-3-3-3-3-3-6-6-6-6-6-6-6-6-6-6-6-6-6-6-6-6--

|-----------------------------------------------------------------------
|-----------------------------------------------------------------------
|-----------------------------------------------------------------------
|--0-0-0-0-0-0-0-0-3-3-3-3-3-3-3-3-6-6-6-6-6-6-6-6-8-8-8-8-10-10-10-10--
|--0-0-0-0-0-0-0-0-3-3-3-3-3-3-3-3-6-6-6-6-6-6-6-6-8-8-8-8-10-10-10-10--
|--0-0-0-0-0-0-0-0-3-3-3-3-3-3-3-3-6-6-6-6-6-6-6-6-8-8-8-8-10-10-10-10--

|-------------------------------------
|-------------------------------------
|-------------------------------------
|--0-0-0-0-0-0-0-0-3-3-3-3-3-3-3-3-6--
|--0-0-0-0-0-0-0-0-3-3-3-3-3-3-3-3-6--
|--0-0-0-0-0-0-0-0-3-3-3-3-3-3-3-3-6--


MAIN RIFF 1:53/1:58

|----------------------------------------
|----------------------------------------
|-----------------------8-8-8--5-5-------
|--0-0-0--6-6-6--3-3-3--8-8-8--5-5--3-3--
|--0-0-0--6-6-6--3-3-3--6-6-6--3-3--3-3--
|--0-0-0--6-6-6--3-3-3--------------3-3--

|-------------------------------------------
|-------------------------------------------
|-----------------------8-8-8--5-5----------
|--0-0-0--6-6-6--3-3-3--8-8-8--5-5--3-3--0--
|--0-0-0--6-6-6--3-3-3--6-6-6--3-3--3-3--0--
|--0-0-0--6-6-6--3-3-3--------------3-3--0--


AS WITH MOST AMEN SONGS THERES PLENTY OF LITTLE FILLS AND BENDS IN THIS TRACK.
THE SECOND GUITAR PLAYS THE MAIN RIFF LIKE THIS:

|--------------------------------------------------------
|--------------------------------------------------------
|--------------------------------8--8--8---5--5---10-10--
|--0--0--0---6--6--6---3--3--3---8--8--8---5--5---10-10--
|--0--0--0---6--6--6---3--3--3---6--6--6---3--3---8--8---
|--0--0--0---6--6--6---3--3--3---------------------------





h  = Hammer On
p  = Pull Off
/  = Slide
() = Natural Harmonic
.  = Palm Mute
x  = String Mute
            
Submit corrections


        Ck Killer lessons Hard to play? Try these video lessons and learn fast Ck Killer lessons
        
↑ Back to top | Tablatures and chords for acoustic guitar and electric guitar, ukulele, drums are parodies/interpretations of the original songs. You may use it for private study, scholarship, research or language learning purposes only