» » »

Amen - Ck Killer Tabs

Artists:  A B C D E F G H I J K L M N O P Q R S T U V W X Y Z # 

Ck Killer Tabs

(ver. 2) Click to play this song!
Amen
 Rating:
4/5 (4 votes)

 Ck Killer lessons Tabs too difficult? Try these video lessons and learn fast
 
                CK Killer

Drop D tuning

There are bits of feedback here and there, but I haven't bothered tabbing them.

INTRO

E------------------------------------------------
B------------------------------------------------
G------------------------------------------------
D--0---0---0---0---0---0---0---0---0-------0-----
A--0---0---0---0---0---0---0---0---0-------0-----
D--0---0---0---0---0---0---0---0---0-------0-----

play these so hard that the notes rises and then falls

RIFF 2

E-----------------------------------------------
B-----------------------------------------------
G-----------------------------------------------
D-----------------------------------------------
A--------------------6-6-6-3-3------------------
D--0-0-0-6-6-6-3-3-3-----------3-3--------------

RIFF 3

guitar 1

E-----------------------------------------------
B-----------------------------------------------
G--5-5-5-8-8-8-7-7-7-10-10-10-------------------
D--5-5-5-8-8-8-7-7-7-10-10-10-------------------
A--3-3-3-6-6-6-5-5-5-8--8--8--------------------
D-----------------------------------------------

guitar 2

E----------------------------------------------------
B----------------------------------------------------
G---14-13-11-14-13-11-14-13-11-14-13-11-14-13-11-----
D---14-13-11-14-13-11-14-13-11-14-13-11-14-13-11-----
A----------------------------------------------------
D----------------------------------------------------

Chorus (0.47)

E------------------------------------------------------------------------------------------------
B---------------------------------------tens-----------------------------------------------------
G------------------------------------------------------------------------------------------------
D--000000003333333366666666888888881010101010101010-0000000033333333666666666666666666666666-----
A--000000003333333366666666888888881010101010101010-0000000033333333666666666666666666666666-----
D--000000003333333366666666888888881010101010101010-0000000033333333666666666666666666666666-----

last time

E----------------------------------11b-tremolo pick----------------------
B----------------------------------11b-----------------------------------
G-------------------8----------------------------------------------------
D--0000000033333333-6----------------------------------------------------
A--0000000033333333-6----------------------------------------------------
D--0000000033333333-6----------------------------------------------------
            
Submit corrections


        Ck Killer lessons Hard to play? Try these video lessons and learn fast Ck Killer lessons
        
↑ Back to top | Tablatures and chords for acoustic guitar and electric guitar, ukulele, drums are parodies/interpretations of the original songs. You may use it for private study, scholarship, research or language learning purposes only