Home » A » Ambassadors »

Ambassadors - Gugmang Giatay Tabs

Artists:  A B C D E F G H I J K L M N O P Q R S T U V W X Y Z # 

Gugmang Giatay Tabs

(ver. 1) Click to play this song!
Ambassadors
Song Name   : GUGMANG GIATAY
Song Artist : AMBASSADORS
             
 
                     Please Rate this..

            ----------------------------------
                     GUGMANG GIATAY
            ----------------------------------
              

 	Para sa tanan taga Cebu...
	

	

Guitar Version:

Standard Tuning: EADGBE

[Intro]
 
	     A			A
 e|-------------------------------0-----------|
 B|--------2h3-2------------2---2-------------|
 G|------2-------2--------2---2----2----------|
 D|----2-----------2----2------------2--------|
 A|--0----------------0-----------------------|
 E|-------------------------------------------|

----------------------------------------------------------|

		A			A
 e|-------------0--------------------------0-----------|
 B|--------2--2-----------2--2-------2---2------2------|
 G|------2--2-----2-----2--2-------2---2--------2------|
 D|----2-----------2--2----------2---------------------|
 A|--0--------------0----------0----------------0------|
 E|----------------------------------------------------|
	buot kong ikaw masayod og paminawon mo
	
	    F#m                 E
 e|------------2----------------0----------------------|
 B|----------2--2-----------------0--------------------|
 G|--------2-----2------------------1------------------|
 D|------4--------------------2-------2----------------|
 A|----4-----------------------------------------------|
 E|--2----------------------0--------------------------|
	kay kung pananglit, yam-iran mo

           D 			E          
 e|--------2-----------------------0-------------------|
 B|------3---3-------------------0---------------------|
 G|----2------2---------------1------------------------|
 D|--0----------0-----------2--------------------------|
 A|---------------------------------------------------|
 E|----------------------0---------------------------|
	mga panumpa og pasalig ko

		A              		D		E
 e|-------------0---------------|--------2--------------0----------|
 B|--------2--2----------2--2---|------3--3-----------0--0---------|
 G|------2--2----2-----2--2-----|----2-----2--------1------1-------|
 D|----2----------2--2----------|--0---------0---------------------|
 A|--0-------------0------------|----------------------------------|
 E|-----------------------------|----------------0-----------------|
 og kun ugaling kalit kang mubiya, di ko kapugngan walug ning mga luha

	  D            E	            F#m         D
 e|-------2------------0--------|------------2-----------2---------|
 B|-----3--3---------0---0------|----------2--2--------3--3--------|
 G|---2-----2------1-------1----|--------2-----2-----2------2------|
 D|-0---------0-----------------|------4-----------0---------0-----|
 A|-----------------------------|----4-----------------------------|
 E|--------------0--------------|--2-------------------------------|
   kay ikaw akong himaya        handumon ko matag karon og unya

		F#m      E                   A         A
 e|------------2----------0-----|------------0---------------------|
 B|----------2--2-------0--0----|--------2-2----------2--2---------|
 G|--------2-----2----1-----1---|------2--2---2-----2--2-----------|
 D|------4----------------------|----2---------2--2----------------|
 A|----4------------------------|--0------------0------------------|
 E|--2--------------0-----------|----------------------------------|
    ikaw langit og yuta akong     pinangga     ah....

 e|---------------0----------------|
 B|----------2--2-----------2--2---|
 G|--------2--2-----2-----2--2-----|
 D|------2-----------2--2----------|
 A|----0--------------0------------|
 E|--------------------------------|
        ohhh...la...la..

	     F#m         D		    F#m          D
 e|------------2---------2------|------------2------------2--------|
 B|----------2--2------3--3-----|----------2--2---------3--3-------|
 G|--------2-----2---2------2---|--------2------2-----2------2-----|
 D|------4---------0------------|------4------------0--------------|
 A|----4------------------------|----4-----------------------------|
 E|--2--------------------------|--2-------------------------------|
    unya mihabol ang kangitngit,    nga giduyugan sa ulan 

	     F#m         D		    F#m          D
 e|------------2---------2------|------------2------------2--------|
 B|----------2--2------3--3-----|----------2--2---------3--3-------|
 G|--------2-----2---2------2---|--------2------2-----2------2-----|
 D|------4---------0------------|------4------------0--------------|
 A|----4------------------------|----4-----------------------------|
 E|--2--------------------------|--2-------------------------------|
   ug sa kalit lang nahanaw,       ang bidlisyo sa adlaw 

Chorus:

	    A              E               F#m           E
 e|----------0--------------0----------------2-------------0-------|
 B|--------2--2-----------0--0-------------2--2----------0--0------|
 G|------2-----2--------1-----1----------2-----2-------1-----1-----|
 D|----2--------2-----2--------2-------4-------------2--------2----|
 A|--0-------------------------------4-----------------------------|
 E|-----------------0--------------2---------------0---------------|
     oh kahayag... sa imong panagway nga naulipon sa gugmang giatay
   
            A              E               F#m           E
 e|----------0--------------0----------------2-------------0-------|
 B|--------2--2-----------0--0-------------2--2----------0--0------|
 G|------2-----2--------1-----1----------2-----2-------1-----1-----|
 D|----2--------2-----2--------2-------4-------------2--------2----|
 A|--0-------------------------------4-----------------------------|
 E|-----------------0--------------2---------------0---------------|
   inday paminawa,  kabos kong gugma nga kanimo akong igasa

          D            E	            F#m             E
 e|-------2------------0--------|------------2------------0--------|
 B|-----3--3---------0---0------|----------2--2---------0--0-------|
 G|---2-----2------1-------1----|--------2-----2------1-----1------|
 D|-0---------0-----------------|------4------------2---------2----|
 A|-----------------------------|----4-----------------------------|
 E|--------------0--------------|--2--------------0----------------|
   dili ko man mahatag ang tanang bahandi  ning kalibutan

          D            E	            F#m             E
 e|-------2------------0--------|------------2------------0--------|
 B|-----3--3---------0---0------|----------2--2---------0--0-------|
 G|---2-----2------1-------1----|--------2-----2------1-----1------|
 D|-0---------0-----------------|------4------------2---------2----|
 A|-----------------------------|----4-----------------------------|
 E|--------------0--------------|--2--------------0----------------|
   apan inday,dungga intawn ning alaot nga naulipon sa gugmang giatay

           
 		A			A
 e|-------------0--------------------------0----0------|
 B|--------2--2-----------2--2-------2---2------2------|
 G|------2--2-----2-----2--2-------2---2--------2------|
 D|----2-----------2--2----------2--------------2------|
 A|--0--------------0----------0----------------0------|
 E|----------------------------------------------------|
            0hh.... oh.....

Chords:

   A
   F#m-E-D-E
   A-D-E
   D-E-F#m-D
   F#m-E-A
Refrain:
   F#m-D
   F#m-D
   F#m-D
   F#m-E
Chorus:
   A-E-F#m-E
   A-E-F#m-E


Lyrics:


kung ikaw masayud 
paminawon mo 
kay kung pananglit 
lang iran mo 
mga panun-paw pasalig ko 
kung ugaling kalit kang mubiya 
di ko kapugngan akong(?) mga luha 
kay ikaw akong himaya 
handumon ko matag karun ug unya 
ikaw ang langit ug yuta ako pinangga .. ahhh 


oh lahh. aahhhh 


2x 
unya mihabol(?) ang kangitngit 
na giduyugan sa ulan 
ug sa kalit lng nahanaw 
ang bidlisiw sa adlaw 

CHORUS 
oh kahayag sa imong panagway 
nga naulipon sa gugmang giatay 
inday paminawa kabos kong gugma 
nga kanimo akong igasa 
dili ko man mahatag ang tanang bahandi 
'ning kalibutan apan inday unya intawon 
hinaot na naulipon sa gugmang giatay 
ohhhh ....


Please Rate! thanks..

Downloaded From: 
            
Submit corrections

↑ Back to top | Tablatures and chords for acoustic guitar and electric guitar, ukulele, drums are parodies/interpretations of the original songs. You may use it for private study, scholarship, research or language learning purposes only