Home » A » Ambassadors »

Ambassadors - It Might Be You Tabs

Artists:  A B C D E F G H I J K L M N O P Q R S T U V W X Y Z # 

It Might Be You Tabs

(ver. 1) Click to play this song!
Ambassadors
(Intro)
INTRO TO THE PUNK VERSION OF: IT MIGHT BE YOU
FINGER PLUCKED,SOUNDS DIFFERENT IF PICK
STANDARD TUNING

PART I MODERATELY SLOW:
E-------3----3/5-5/7-3- E--------3-----3/5-5/7-3--  E------3------3/5-5/7-3-|
B----3----------------- B----3--------------------  B----3------------------|
G--------4------------- G-----------0-------------  G---------0-------------|
D--5------------------- D-------------------------  D-----------------------|
A---------------------- A--2----------------------  A--3--------------------|
E---------------------- E-------------------------  E-----------------------|

E------------3------3/5--3------3--|
B-----1---------1-----------3/5----|
G---------2------------------------|
D--0-------------------------------|
A----------------------------------|
E----------------------------------|

E---------------|
B-----------3-3-|
G-----0--0------|
D---0--0--0-----|
A---------------|
E--3------------|

E----------------|
B------------3-3-|
G------0--0------|
D----0--0--0-----|
A--2-------------|
E----------------|

E----------------------------------|
B-------------3-3--5--1--1h5p1-----|
G------0---0-------------------0-0-|
D----2---2---2---------------------|
A--3-------------------------------|
E----------------------------------|

PALM MUTE

PART II VERY FAST:

(2x)
E----9-7-6-4-6-7-9-7-6-4-6-7-9-7-6-4-6-7-9-7-6--|
B--7--------------------------------------------|
G-----------------------------------------------|
D-----------------------------------------------|
A-----------------------------------------------|
E-----------------------------------------------|

(2x)
E-------3----3h5-5h7-3- E--------3-----3h5-5h7-3--  E------3------3h5-5h7-3-|
B----3----------------- B----3--------------------  B----3------------------|
G--------4------------- G-----------0-------------  G---------0-------------|
D--5------------------- D-------------------------  D-----------------------|
A---------------------- A--2----------------------  A--3--------------------|
E---------------------- E-------------------------  E-----------------------|

E------------3------3h5--3------3--|
B-----1---------1-----------3h5----|
G---------2------------------------|
D--0-------------------------------|
A----------------------------------|
E----------------------------------|

(2x)
E------------------|
B--------------3-3-|
G-----0--0--0------|
D---0--0--0--0-----|
A------------------|
E--3---------------|

E---------------------|
B-----------------3-3-|
G------0--0--0--------|
D----0--0--0--0-------|
A--2------------------|
E---------------------|

E-----------------------------------------|
B-------------------3-3--5--1--1h5p1------|
G------0---0---0---------------------0-0--|
D----2---2---2---2------------------------|
A--3--------------------------------------|
E-----------------------------------------|


E----9-7-6-4-6-7-9-7-6-4-6-7-9-7-6-4-6-7-9-7-6--|
B--7--------------------------------------------|
G-----------------------------------------------|
D-----------------------------------------------|
A-----------------------------------------------|
E-----------------------------------------------|


time.....
POWERCHORD(G)
E----------|
B----------|
G----------|
D--5-5-5-5-|
A--5-5-5-5-|
E--3-3-3-3-|


That's all! Basically, make the chords of IT MIGHT  BE  YOU into power chords and that's 
whole song.  and during chorus, LEAD GUITARS does Part II while the RHYTHMS  does the 
chords.. easy to do! \\m// CAI
            
Submit corrections

↑ Back to top | Tablatures and chords for acoustic guitar and electric guitar, ukulele, drums are parodies/interpretations of the original songs. You may use it for private study, scholarship, research or language learning purposes only