» » »

Alt-j - Pleader Live Tabs

Artists:  A B C D E F G H I J K L M N O P Q R S T U V W X Y Z # 

Pleader Live Tabs

(ver. 3) Click to play this song!
Alt-j
 Rating:
4.3/5 (22 votes)

 Pleader Live lessons Tabs too difficult? Try these video lessons and learn fast
 
                [Intro]
D |------------------|------------------|------------------|-------------------|
A |------------------|------------------|------------------|-------------------|
F#|-11---------11----|-11---------11----|-11---------11----|-11----------11----| (X4)
D |------------------|------------------|------------------|-------------------|
A |----12-0-12----12-|----12-0-12----12-|----12-0-12----12-|----12-13-12----12-|
D |------------------|------------------|------------------|-------------------|

D |------------------|------------------|------------------|------------------|
A |------------------|------------------|------------------|------------------|
F#|-13---------13----|-11---------11----|-10---------10----|-10---------10----|
D |------------------|------------------|------------------|------------------|
A |----12-0-12----12-|----12-0-12----12-|----12-0-12----12-|----12-0-12----12-|
D |------------------|------------------|------------------|------------------|

D |------------------|------------------|---------------|---------------|-------------|---------------|
A |------------------|------------------|---------------|---------------|-------------|---------------|
F#|-13---------13----|-13---------13----|-13-------13---|-13-------13---|-6-------6---|-8-------------|
D |------------------|------------------|---------------|---------------|-------------|---------------|
A |----10-0-10----10-|----10-0-10----10-|----7-0-7----7-|----7-0-7----7-|---7-0-7---7-|---------------|
D |------------------|------------------|---------------|---------------|-------------|---------------|

(Repeat whole intro section a second time.)

[Verse 01]
D |-5-------5-0-|-4-------4-0-|-------------|-------------|-------------|-------------|-------------|
A |---5-0-5-----|---5-0-5-----|-5-------5-0-|-7-4-0-4-7-0-|-7-4-0-4-7-0-|-7-4-0-4-7-0-|-7-4-0-4-7-0-|
F#|-------------|-------------|---5-0-5-----|-------------|-------------|-------------|-------------|
D |-------------|-------------|-------------|-------------|-------------|-------------|-------------|
A |-------------|-------------|-------------|-------------|-------------|-------------|-------------|
D |-------------|-------------|-------------|-------------|-------------|-------------|-------------|
   How green, how green was my valley?

D |-4-------4-0-|-5-------5-0-|-------------|-------------|-------------|---------------|
A |---5-0-5-----|---5-0-5-----|-7-4-0-4-7-0-|-7-4-0-4-7-0-|-7-4-0-4-7-0-|-7-4-0-4-7-0---|
F#|-------------|-------------|-------------|-------------|-------------|---------------|
D |-------------|-------------|-------------|-------------|-------------|---------------|
A |-------------|-------------|-------------|-------------|-------------|---------------|
D |-------------|-------------|-------------|-------------|-------------|---------------| 
   To be told of such hils, to be held in such spots, to behold such warmth

D |-5-------5-0-|-4-------4-0-|-------------|-------------|-------------|-------------|-------------|
A |---5-0-5-----|---5-0-5-----|-5-------5-0-|-7-------7-0-|-7-------7-0-|-7-------7-0-|-7-------7-0-|
F#|-------------|-------------|---5-0-5-----|---7---7-----|---7---7-----|---7---7-----|---7---7-----|
D |-------------|-------------|-------------|-----7-------|-----7-------|-----7-------|-----7-------|
A |-------------|-------------|-------------|-------------|-------------|-------------|-------------|
D |-------------|-------------|-------------|-------------|-------------|-------------|-------------|
   Call to arms these harmonies!                    And in happy agony we sing

D |-5-------5-0-|-4-------4-0-|-------------|-------------|-------------|-------------|---------|
A |---5-0-5-----|---5-0-5-----|-5-------5-0-|-7-------7-0-|-7-------7-0-|-7-------7-0-|-7-------|
F#|-------------|-------------|---5-0-5-----|---7---7-----|---7---7-----|---7---7-----|---7---7-|
D |-------------|-------------|-------------|-----7-------|-----7-------|-----7-------|-----7---|
A |-------------|-------------|-------------|-------------|-------------|-------------|---------|
D |-------------|-------------|-------------|-------------|-------------|-------------|---------|
   How green, how green was my valley?

D |-------------|-------------|---------------------------------------------------|
A |-7-7-7-5-4-5-|-2-----4-----|---5---9---7---------------------------------------|
F#|-------------|-----0-------|---5---8---7---------------------------------------|
D |-------------|---4-----4---|---------------------------------------------------|
A |-------------|-----------2-|---------------------------------------------------|
D |-------------|-------------|---------------------------------------------------|

[Bridge]
D |-------------|---------------|---------------|---------------|---------------|-------------|--------------|
A |-------------|---------------|---------------|---------------|---------------|---4---5---7-|--------------|
F#|-----7-5-5h7-|-------7-5-5h7-|-------7-5-5h7-|-------7-5-5h7-|-------7-5-7h8-|-------------|---8---10-----|
D |-------------|---------------|---------------|---------------|---------------|-------------|--------------|
A |-0-7---------|-7-0-7---------|-7-0-7---------|-7-0-7---------|-7-0-7---------|-------------|--------------|
D |-------------|---------------|---------------|---------------|---------------|-------------|--------------|

D |------------------|------------------|------------------|-------------------|
A |------------------|------------------|------------------|-------------------|
F#|-11---------11----|-11---------11----|-11---------11----|-11----------11----| (X4)
D |------------------|------------------|------------------|-------------------|
A |----12-0-12----12-|----12-0-12----12-|----12-0-12----12-|----12-13-12----12-|
D |------------------|------------------|------------------|-------------------|

[Interlude no guitar for a minute...]

[Verse 02]
D |-5-------5-0-|-4-------4-0-|-------------|-------------|-------------|-------------|-------------|
A |---5-0-5-----|---5-0-5-----|-5-------5-0-|-7-4-0-4-7-0-|-7-4-0-4-7-0-|-7-4-0-4-7-0-|-7-4-0-4-7-0-|
F#|-------------|-------------|---5-0-5-----|-------------|-------------|-------------|-------------|
D |-------------|-------------|-------------|-------------|-------------|-------------|-------------|
A |-------------|-------------|-------------|-------------|-------------|-------------|-------------|
D |-------------|-------------|-------------|-------------|-------------|-------------|-------------|
   How green, how green was my valley?

D |-4-------4-0-|-5-------5-0-|-------------|-------------|-------------|---------------|
A |---5-0-5-----|---5-0-5-----|-7-4-0-4-7-0-|-7-4-0-4-7-0-|-7-4-0-4-7-0-|-7-4-0-4-7-0---|
F#|-------------|-------------|-------------|-------------|-------------|---------------|
D |-------------|-------------|-------------|-------------|-------------|---------------|
A |-------------|-------------|-------------|-------------|-------------|---------------|
D |-------------|-------------|-------------|-------------|-------------|---------------| 
   Oh, your deeps and your shades    Where the wild roses pray   Such heat from pride

D |-5-------5-0-|-4-------4-0-|-------------|-------------|-------------|-------------|-------------|
A |---5-0-5-----|---5-0-5-----|-5-------5-0-|-7-------7-0-|-7-------7-0-|-7-------7-0-|-7-------7-0-|
F#|-------------|-------------|---5-0-5-----|---7---7-----|---7---7-----|---7---7-----|---7---7-----|
D |-------------|-------------|-------------|-----7-------|-----7-------|-----7-------|-----7-------|
A |-------------|-------------|-------------|-------------|-------------|-------------|-------------|
D |-------------|-------------|-------------|-------------|-------------|-------------|-------------|
   Glorious, the voice of man!                    Like the nightingales, we sing

D |-5-------5-0-|-4-------4-0-|-------------|-------------|-------------|-------------|-------------|
A |---5-0-5-----|---5-0-5-----|-5-------5-0-|-7-------7-0-|-7-------7-0-|-7-------7-0-|-7-------7-0-|
F#|-------------|-------------|---5-0-5-----|---7---7-----|---7---7-----|---7---7-----|---7---7-----|
D |-------------|-------------|-------------|-----7-------|-----7-------|-----7-------|-----7-------|
A |-------------|-------------|-------------|-------------|-------------|-------------|-------------|
D |-------------|-------------|-------------|-------------|-------------|-------------|-------------|
   How green, how green was my valley?

[Verse 03]
D |-5-------5-0-|-4-------4-0-|-------------|-------------|-------------|-------------|-------------|
A |---5-0-5-----|---5-0-5-----|-5-------5-0-|-7-4-0-4-7-0-|-7-4-0-4-7-0-|-7-4-0-4-7-0-|-7-4-0-4-7-0-|
F#|-------------|-------------|---5-0-5-----|-------------|-------------|-------------|-------------|
D |-------------|-------------|-------------|-------------|-------------|-------------|-------------|
A |-------------|-------------|-------------|-------------|-------------|-------------|-------------|
D |-------------|-------------|-------------|-------------|-------------|-------------|-------------|
   How green, how green was my valley?

D |-4-------4-0-|-5-------5-0-|-------------|-------------|-------------|---------------|
A |---5-0-5-----|---5-0-5-----|-7-4-0-4-7-0-|-7-4-0-4-7-0-|-7-4-0-4-7-0-|-7-4-0-4-7-0---|
F#|-------------|-------------|-------------|-------------|-------------|---------------|
D |-------------|-------------|-------------|-------------|-------------|---------------|
A |-------------|-------------|-------------|-------------|-------------|---------------|
D |-------------|-------------|-------------|-------------|-------------|---------------| 
   Clear softness in our hymn          Soft, like coming rain       Soft, like Bronwen

D |-5-------5-0-|-4-------4-0-|-------------|-------------|-------------|-------------|-------------|
A |---5-0-5-----|---5-0-5-----|-5-------5-0-|-7-------7-0-|-7-------7-0-|-7-------7-0-|-7-------7-0-|
F#|-------------|-------------|---5-0-5-----|---7---7-----|---7---7-----|---7---7-----|---7---7-----|
D |-------------|-------------|-------------|-----7-------|-----7-------|-----7-------|-----7-------|
A |-------------|-------------|-------------|-------------|-------------|-------------|-------------|
D |-------------|-------------|-------------|-------------|-------------|-------------|-------------|
   Victoria! Victoria!                             Voices our queen might envy

D |-5-------5-0-|-4-------4-0-|-------------|-------------|-------------|-------------|-------------|
A |---5-0-5-----|---5-0-5-----|-5-------5-0-|-7-------7-0-|-7-------7-0-|-7-------7-0-|-7-------7---|
F#|-------------|-------------|---5-0-5-----|---7---7-----|---7---7-----|---7---7-----|---7---7-----|
D |-------------|-------------|-------------|-----7-------|-----7-------|-----7-------|-----7-------|
A |-------------|-------------|-------------|-------------|-------------|-------------|-------------|
D |-------------|-------------|-------------|-------------|-------------|-------------|-------------|
   How green, how green was my valley?

D |---------------------------------------------------------------------------|
A |---------------------------------------------------------------------------|
F#|---------------------------------------------------------------------------|
D |---------------------------------------------------------------------------|
A |---------------------------------------------------------------------------|
D |---------------------------------------------------------------------------|
   How green, how green was my valley?            
Submit corrections


        Pleader Live lessons Hard to play? Try these video lessons and learn fast Pleader Live lessons
        
↑ Back to top | Tablatures and chords for acoustic guitar and electric guitar, ukulele, drums are parodies/interpretations of the original songs. You may use it for private study, scholarship, research or language learning purposes only