» » »

Alt-j - Pleader Tabs

Artists:  A B C D E F G H I J K L M N O P Q R S T U V W X Y Z # 

Pleader Tabs

(ver. 2) Click to play this song!
Alt-j
 Rating:
4.4/5 (11 votes)

 Pleader  lessons Tabs too difficult? Try these video lessons and learn fast
 
                [Intro] (x2)
e|-------------------------------------------------|
B|-6-------6---6-------6---6-------6---6-------6---|
G|-------------------------------------------------| (x4)
D|---7---7---7---7---7---7---7---7---7---7-8-7---7-|
A|-----0-----------0-----------0-------------------| 
E|-------------------------------------------------|

e|-------------------------------------------------|
B|-8-------8---6-------6---5-------5---5-------5---|
G|-------------------------------------------------|
D|---7---7---7---7---7---7---5---5---5---5---5---5-|
A|-----0-----------0-----------0-----------0-------|
E|-------------------------------------------------|

e|-3-------3---3-------3---3-------3---3-------3--------------------|
B|-------------------------------------------------------------3----|
G|-------------------------------------------------5-------5--------|
D|---5---5---5---5---5---5---2---2---2---2---2---2---2---2---2------|
A|-----0-----------0-----------0-----------0-----------0------------|
E|------------------------------------------------------------------|

[Chorus]
  G/A          D           Bm          A
e|-------------------------------------------------------------------------------------|
B|-8-------8---7-------7---3-------3---5-------5---5-------5---5-------5---5-------5---|
G|---7---7---7---7---7---7---4---4---4---6---6---6---6---6---6---6---6---6---6---6---6-|
D|-----7-----------7-----------4-----------7-----------7-----------7-----------7-------|
A|-------------------------------------------------------------------------------------|
E|-------------------------------------------------------------------------------------|

   D           G/A         A
e|-------------------------------------------------------------------------|
B|-7-------7---8-------8---5-------5---5-------5---5-------5---5-------5---|
G|---7---7---7---7---7---7---6---6---6---6---6---6---6---6---6---6---7-----|
D|-----7-----------7-----------7-----------7-----------7-----------7-----7-|
A|-------------------------------------------------------------------------|
E|-------------------------------------------------------------------------|

  G/A          D           Bm          A
e|-------------------------------------------------------------------------------------|
B|-8-------8---7-------7---3-------3---5-------5---5-------5---5-------5---5-------5---|
G|---7---7---7---7---7---7---4---4---4---6---6---6---6---6---6---6---6---6---6---6---6-| (x2)
D|-----7-----------7-----------4-----------7-----------7-----------7-----------7-------|
A|-------------------------------------------------------------------------------------|
E|-------------------------------------------------------------------------------------|

[Break]
e|--------------------------------------------------|
B|-5-5-5-5-3-2h3-------2-------3---/7----5----------|
G|---------------4-------4-----4---/7----6----------|
D|-----------------4--------------------------------|
A|-------------------2-----2------------------------|
E|--------------------------------------------------|

e|----------------------------------------------------------------------------------------------------------|
B|-------2--0--0h2----------2--0--0h2-----------2--0--0h2-----------2--0--2/3--2----3---/5----3------5------|
G|----------------------------------------------------------------------------------------------------------|
D|----2------------2-----2-------------2-----2-------------2-----2------------------------------------------|
A|-0------------------0-------------------0-------------------0---------------------------------------------|
E|----------------------------------------------------------------------------------------------------------|

e|-------------------------------------------------|
B|-6-------6---6-------6---6-------6---6-------6---|
G|-------------------------------------------------| (x4)
D|---7---7---7---7---7---7---7---7---7---7-8-7---7-|
A|-----0-----------0-----------0-------------------| 
E|-------------------------------------------------|

(No Guitar While The Flutes Play)

[Outro/Chorus]
  G/A          D           Bm          A
e|-------------------------------------------------------------------------------------|
B|-8-------8---7-------7---3-------3---5-------5---5-------5---5-------5---5-------5---|
G|---7---7---7---7---7---7---4---4---4---6---6---6---6---6---6---6---6---6---6---6---6-|
D|-----7-----------7-----------4-----------7-----------7-----------7-----------7-------|
A|-------------------------------------------------------------------------------------|
E|-------------------------------------------------------------------------------------|

   D           G/A         A
e|-------------------------------------------------------------------------|
B|-7-------7---8-------8---5-------5---5-------5---5-------5---5-------5---|
G|---7---7---7---7---7---7---6---6---6---6---6---6---6---6---6---6---7-----|
D|-----7-----------7-----------7-----------7-----------7-----------7-----7-|
A|-------------------------------------------------------------------------|
E|-------------------------------------------------------------------------|

  G/A          D           Bm          A
e|-------------------------------------------------------------------------------------|
B|-8-------8---7-------7---3-------3---5-------5---5-------5---5-------5---5-------5---|
G|---7---7---7---7---7---7---4---4---4---6---6---6---6---6---6---6---6---6---6---6---6-| (x2)
D|-----7-----------7-----------4-----------7-----------7-----------7-----------7-------|
A|-------------------------------------------------------------------------------------|
E|-------------------------------------------------------------------------------------|

   D           G/A        A
e|-------------------------------------------------------------------------|
B|-7-------7---8-------8---5-------5---5-------5---5-------5---5-------5---|
G|---7---7---7---7---7---7---6---6---6---6---6---6---6---6---6---6---7-----|
D|-----7-----------7-----------7-----------7-----------7-----------7-----7-|
A|-------------------------------------------------------------------------|
E|-------------------------------------------------------------------------|

  G/A          D           Bm          A
e|-------------------------------------------------------------------------------------|
B|-8-------8---7-------7---3-------3---5-------5---5-------5---5-------5---5-------5---|
G|---7---7---7---7---7---7---4---4---4---6---6---6---6---6---6---6---6---6---6---6---6-| (x2)
D|-----7-----------7-----------4-----------7-----------7-----------7-----------7-------|
A|-------------------------------------------------------------------------------------|
E|-------------------------------------------------------------------------------------|
            
Submit corrections


        Pleader  lessons Hard to play? Try these video lessons and learn fast Pleader  lessons
        
↑ Back to top | Tablatures and chords for acoustic guitar and electric guitar, ukulele, drums are parodies/interpretations of the original songs. You may use it for private study, scholarship, research or language learning purposes only