» » »

Alt-j - Pleader Tabs

Artists:  A B C D E F G H I J K L M N O P Q R S T U V W X Y Z # 

Pleader Tabs

(ver. 1) Click to play this song!
Alt-j
 Rating:
4.3/5 (9 votes)

 Pleader  lessons Tabs too difficult? Try these video lessons and learn fast
 
                [Intro]
e|---------------------------------------------------------------------------|
B|---------------------------------------------------------------------------|
G|--10-----------10---10-----------10---10-----------10---10-----------10----|  (x3)
D|------7-----7-----------7-----7-----------7-----7-----------7--8--7--------|
A|---------0--------8--------0--------8--------0--------8-----------------8--|
D|---0-----------------0-----------------0-----------------0-----------------|

e|---------------------------------------------------------------------------|
B|--8-----------8------------------------------------------------------------|
G|--------------------10----------10----9-----------9-----9-----------9------|
D|-----7-----7-----------7-----7---------------------------------------------|
A|--------0--------8--------0--------8-----10-0-10-----9-----10-0-10-----9---|
D|---------------------------------------------------------------------------|

e|---------------------------------------------------------------------------|
B|--8-----------8-----8-----------8-----8-----------8-----8-----------8------|
G|---------------------------------------------------------------------------|
D|---------------------------------------------------------------------------|
A|-----10-0-10-----9-----10-0-10-----9-----7--0--7-----9-----7--0--7-----9---|
D|---------------------------------------------------------------------------|

e|---------------------------------------------------------------|
B|---------------------------------------------------------------|
G|-------------------7-------------------------------------------|
D|--10---------10----x-------------------------------------------|
A|-----10-0-10----9--8-------------------------------------------|
D|---------------------------------------------------------------|

e|---------------------------------------------------------------------------|
B|---------------------------------------------------------------------------|
G|--10-----------10---10-----------10---10-----------10---10-----------10----|  (x4)
D|------7-----7-----------7-----7-----------7-----7-----------7--8--7--------|
A|---------0--------8--------0--------8--------0--------8-----------------8--|
D|---0-----------------0-----------------0-----------------0-----------------|

e|---------------------------------------------------------------------------|
B|--8-----------8------------------------------------------------------------|
G|--------------------10----------10----9-----------9-----9-----------9------|
D|-----7-----7-----------7-----7---------------------------------------------|
A|--------0--------8--------0--------8-----10-0-10-----9-----10-0-10-----9---|
D|---------------------------------------------------------------------------|

e|---------------------------------------------------------------------------|
B|--8-----------8-----8-----------8-----8-----------8-----8-----------8------|
G|---------------------------------------------------------------------------|
D|---------------------------------------------------------------------------|
A|-----10-0-10-----9-----10-0-10-----9-----7--0--7-----9-----7--0--7-----9---|
D|---------------------------------------------------------------------------|

                     Dm/F                    Dm/A         C#dim
e|-------------------1------------------------1-------------0----------------|
B|-------------------3------------------------3-------------2----------------|
G|-------------------2------------------------2-------------0----------------|
D|--10---------10----3--------------------------------------2----------------|
A|-----10-0-10----9-----------------------------------------4----------------|
D|---------------------------------------------------------------------------            
Submit corrections


        Pleader  lessons Hard to play? Try these video lessons and learn fast Pleader  lessons
        
↑ Back to top | Tablatures and chords for acoustic guitar and electric guitar, ukulele, drums are parodies/interpretations of the original songs. You may use it for private study, scholarship, research or language learning purposes only