» » »

Alt-j - Something Good Tabs

Artists:  A B C D E F G H I J K L M N O P Q R S T U V W X Y Z # 

Something Good Tabs

(ver. 3) Click to play this song!
Alt-j
 Rating:
4/5 (4 votes)

 Something Good lessons Tabs too difficult? Try these video lessons and learn fast
 
                INTRO x 2

e ||---------------------------------------2----------------------------------------------||
B ||------0----0----0----0----0----0----0---3h2h0---0----0----0----0----0----0----0----0--||
G ||--------------------------------------------------------------------------------------||
D ||--------------------------------------------------------------------------------------||
A ||----2--2--2---2--2--2---2--2--2---2--2------------------------------------------------||
E ||----------------------------------------------3--3--3---3--3--3---3--3--3---3--3--3---||

VERSE x 4

e ||--------------------------------------------||
B ||------0----0----0----0----0----0----0----0--||
G ||--------------------------------------------||
D ||----2--2--2---0--0--0-----------------------||
A ||----------------------------------2--2--2---||
E ||------------------------3--3--3-------------||

PRE-CHORUS x 2

e ||---------0---------0---------0---------0--||
B ||----0---------0---------0---------0-------||
G ||------------------------------------------||
D ||------------------------------------------||
A ||------------------------------------------||
E ||--0--0--0---0--0--0---0--0--0---0--0--0---||

CHORUS x 2

e ||--------------------------------------------------------------------------------------||
B ||------0----0----1----1----0----1-----0----------0----0----1----1----0----1----0----0--||
G ||------0----0----0----0----0----0-----0----------2----2----0----0----0----0----0----0--||
D ||--------------------------------------------------------------------------------------||
A ||--------------3--3--3-----------------------------------3--3--3-----------------------||
E ||----0--0--0-------------3--3--3---3-----3--2--0--0--0-------------3--3--3---3--3--3---||



2ND VERSE x 4

e ||--------------------------------------------||
B ||------0----0----0----0----0----0----0----0--||
G ||--------------------------------------------||
D ||----2--2--2---0--0--0-----------------------||
A ||----------------------------------2--2--2---||
E ||------------------------3--3--3-------------||

2ND PRE-CHORUS

e ||------------------10----7-------3---2--0----||
B ||------------------7-----7-------------------||
G ||------------------7-----7-------------------||
D ||--------------------------------------------||
A ||---7----------------------------------------||
E ||--------------------------------------------||

2ND CHORUS x 2

e ||--------------------------------------------------------------------------------------||
B ||------0----0----1----1----0----1-----0----------0----0----1----1----0----1----0----0--||
G ||------0----0----0----0----0----0-----0----------2----2----0----0----0----0----0----0--||
D ||--------------------------------------------------------------------------------------||
A ||--------------3--3--3-----------------------------------3--3--3-----------------------||
E ||----0--0--0-------------3--3--3---3-----3--2--0--0--0-------------3--3--3---3--3--3---||


INTERLUDE - (plays INTRO again the VERSE then PRE-CHORUS 3 as seen below)

(INTRO x 2)

e ||---------------------------------------2----------------------------------------------||
B ||------0----0----0----0----0----0----0---3h2h0---0----0----0----0----0----0----0----0--||
G ||--------------------------------------------------------------------------------------||
D ||--------------------------------------------------------------------------------------||
A ||----2--2--2---2--2--2---2--2--2---2--2------------------------------------------------||
E ||----------------------------------------------3--3--3---3--3--3---3--3--3---3--3--3---||

(VERSE x 4)

e ||--------------------------------------------||
B ||------0----0----0----0----0----0----0----0--||
G ||--------------------------------------------||
D ||----2--2--2---0--0--0-----------------------||
A ||----------------------------------2--2--2---||
E ||------------------------3--3--3-------------||

(3RD PRE-CHORUS x 2 - he plays this live but something different on the album - see video link) 

e ||---------2-------------2------||
B ||------0-----3--2----0---3h2h0-||
G ||------------------------------||
D ||------------------------------||
A ||----2--2----------0-----------||
E ||---------------------2--------||


3ND CHORUS x 4

e ||--------------------------------------------------------------------------------------||
B ||------0----0----1----1----0----1-----0----------0----0----1----1----0----1----0----0--||
G ||------0----0----0----0----0----0-----0----------2----2----0----0----0----0----0----0--||
D ||--------------------------------------------------------------------------------------||
A ||--------------3--3--3-----------------------------------3--3--3-----------------------||
E ||----0--0--0-------------3--3--3---3-----3--2--0--0--0-------------3--3--3---3--3--3---||

            
Submit corrections


        Something Good lessons Hard to play? Try these video lessons and learn fast Something Good lessons
        
↑ Back to top | Tablatures and chords for acoustic guitar and electric guitar, ukulele, drums are parodies/interpretations of the original songs. You may use it for private study, scholarship, research or language learning purposes only