Home » A » All Time Low »

All Time Low - Dear Maria Count Me In Tabs

Artists:  A B C D E F G H I J K L M N O P Q R S T U V W X Y Z # 

Dear Maria Count Me In Tabs

(ver. 1) Click to play this song!
All Time Low
 Rating:
4.3/5 (21 vote)
                [Intro]

e|-----------------|-----------------|-----------------|-----------------|
B|-----------------|-----------------|-----------------|-----------------|
G|-----------------|-----------------|-----------------|-----------------|
D|-----------------|-----------------|-----------------|-----------------|
A|-9-9-9-9-9-9-9-9-|-9-9-9-9-9-9-9-9-|-5-5-5-5-5-5-5-5-|-5-5-5-5-5-5-5-5-|
D|-9-9-9-9-9-9-9-9-|-9-9-9-9-9-9-9-9-|-5-5-5-5-5-5-5-5-|-5-5-5-5-5-5-5-5-|
PM . . . . . . . .   . . . . . . . .   . . . . . . . .   . . . . . . . .

e|-----------------|-----------------|-----------------|------------------|
B|-----------------|-----------------|-----------------|------------------|
G|-----------------|-----------------|-----------------|---------6/7-7-11-|
D|-7-7-7-7-7-7-7-7-|-7-7-7-7-7-7-7-7-|-----------7-7-7-|-7----------------|
A|-5-5-5-5-5-5-5-5-|-5-5-5-5-5-5-5-5-|-7-7-7-7-7-7-7-7-|-7-------4/5-5--9-|
D|-----------------|-----------------|-7-7-7-7-7-7-7-7-|-7----------------|
PM . . . . . . . .   . . . . . . . .   . . . . .


e|--------------------------|-----------------------|--------------------------|
B|--------------------------|-----------------------|--------------------------|
G|---11-11-11-11-11-11-11---|-12-12-11-11-9/11---11-|---11-11-11-11-11-11-11---|
D|--------------------------|-----------------------|--------------------------|
A|----9--9--9--9--9--9--9---|-10-10--9--9-7/-9----9-|----9--9--9--9--9--9--9---|
D|--------------------------|-----------------------|--------------------------|

e|-------------------------|--------------------------|-----------------------|
B|-------------------------|--------------------------|-----------------------|
G|-12-12-11-11-12/14---11--|---11-11-11-11-11-11-11---|-12-12-11-11-9/11----9-|
D|-------------------------|--------------------------|-----------------------|
A|-10-10--9--9-10/12----9--|----9--9--9--9--9--9--9---|-10-10--9--9-7/-9----7-|
D|-------------------------|--------------------------|-----------------------|

e|-----------------|-------------------------|
B|-----------------|-------------------------|
G|---9-9-9-9-9-9-9-|-14-14-14-14-14-14-14-14-|
D|-----------------|-------------------------|
A|---7-7-7-7-7-7-7-|-12-12-12-12-12-12-12-12-|
D|-----------------|-------------------------|

[Verse 1]

e|-----------------|-----------------|-----------------|-----------------|
B|-----------------|-----------------|-----------------|-----------------|
G|-----------------|-----------------|-----------------|-----------------|
D|-0---------------|-----------------|-5---------------|---------------2-|
A|-0---0-0-0-0-0-0-|-0-0-0-0-0-0-0-0-|-5---5-5-5-5-5-5-|-5-5-5-5-5-5-5-2-|
D|-0---0-0-0-0-0-0-|-0-0-0-0-0-0-0-0-|-5---5-5-5-5-5-5-|-5-5-5-5-5-5-5-2-|
PM     . . . . . .   . . . . . . . .       . . . . . .   . . . . . . . 

e|-----------------|-----------------|-----------------|-----------------|
B|-----------------|-----------------|-----------------|-----------------|
G|-----------------|-----------------|-----------------|-----------7---7-|
D|-----------------|---------------7-|-----------------|-----------------|
A|---2-2-2-2-2-2-2-|-2-2-2-2-2-2-2-7-|---7-7-7-7-7-7-7-|-7-7-7-7-7-5---5-|
D|---2-2-2-2-2-2-2-|-2-2-2-2-2-2-2-7-|---7-7-7-7-7-7-7-|-7-7-7-7-7-------|
PM   . . . . . . .   . . . . . . .       . . . . . . .   . . . . . 

e|-----------------|-----------------|
B|-----------------|-----------------|
G|---7-7---7---7---|-7---7---7-7-7-7-|
D|-----------------|-----------------| x3
A|---5-5---5---5---|-5---5---5-5-5-5-|
D|-----------------|-----------------|

e|-----------------|-----------------|
B|-----------------|-----------------|
G|-6-6-6-6-6-6-6-6-|-6-6-6-6-6-6-6---|
D|-----------------|---------------9-|
A|-4-4-4-4-4-4-4-4-|-4-4-4-4-4-4-4-9-|
D|-----------------|---------------9-|


[Chorus]

e|-----------------|-----------------|-----------------|-----------------|
B|-----------------|-----------------|-----------------|-----------------|
G|-----------------|-----------------|-----------------|-----------------|
D|---9-9-9-9-9-9-9-|-9-9-9-9-9-9-9-5-|---5-5-5-5-5-5-5-|-5-5-5-5-5-5-5-0-|
A|---9-9-9-9-9-9-9-|-9-9-9-9-9-9-9-5-|---5-5-5-5-5-5-5-|-5-5-5-5-5-5-5-0-|
D|---9-9-9-9-9-9-9-|-9-9-9-9-9-9-9-5-|---5-5-5-5-5-5-5-|-5-5-5-5-5-5-5-0-|

e|-----------------|-----------------|-----------------|-----------------|
B|-----------------|-----------------|-----------------|-----------------|
G|-----------------|-----------------|-----------------|-----------------|
D|---0-0-0-0-0-0-0-|-0-0-0-0-0-0-0-7-|---7-7-7-7-7-7-7-|-7-7-7-7-7-7-7-7-|
A|---0-0-0-0-0-0-0-|-0-0-0-0-0-0-0-7-|---7-7-7-7-7-7-7-|-7-7-7-7-7-7-7-7-|
D|---0-0-0-0-0-0-0-|-0-0-0-0-0-0-0-7-|---7-7-7-7-7-7-7-|-7-7-7-7-7-7-7-7-|

e|-----------------|-----------------|-----------------|-----------------|
B|-----------------|-----------------|-----------------|-----------------|
G|-----------------|-----------------|-----------------|-----------------|
D|-9---9---9---9---|-9---9---9---9---|-5---5---5---5---|-5---5---5---5---|
A|-9---9---9---9---|-9---9---9---9---|-5---5---5---5---|-5---5---5---5---|
D|-9---9---9---9---|-9---9---9---9---|-5---5---5---5---|-5---5---5---5---|

e|-----------------|-----------------|-----------------|------------------|
B|-----------------|-----------------|-----------------|------------------|
G|-----------------|-----------------|-----------------|---------------11-|
D|-0---0---0---0---|-0---0---0---0---|-7-7-7-7-7-7-7-7-|-7-7-7-7-7-7-7----|
A|-0---0---0---0---|-0---0---0---0---|-7-7-7-7-7-7-7-7-|-7-7-7-7-7-7-7--9-|
D|-0---0---0---0---|-0---0---0---0---|-7-7-7-7-7-7-7-7-|-7-7-7-7-7-7-7----|


e|--------------------------|-----------------------|
B|--------------------------|-----------------------|
G|---11-11-11-11-11-11-11---|-12-12-11-11-9/11---11-|
D|--------------------------|-----------------------|
A|----9--9--9--9--9--9--9---|-10-10--9--9-7/-9----9-|
D|--------------------------|-----------------------|

e|--------------------------|-------------------------|
B|--------------------------|-------------------------|
G|---11-11-11-11-11-11-11---|-12-12-11-11-12/14---11--|
D|--------------------------|-------------------------|
A|----9--9--9--9--9--9--9---|-10-10--9--9-10/12----9--|
D|--------------------------|-------------------------|

e|--------------------------|-----------------------|
B|--------------------------|-----------------------|
G|---11-11-11-11-11-11-11---|-12-12-11-11-9/11----9-|
D|--------------------------|-----------------------|
A|----9--9--9--9--9--9--9---|-10-10--9--9-7/-9----7-|
D|--------------------------|-----------------------|

e|-----------------|------------------------|
B|-----------------|------------------------|
G|---9-9-9-9-9-9-9-|-14-14-14-14-14-14-14---|
D|-----------------|----------------------0-|
A|---7-7-7-7-7-7-7-|-12-12-12-12-12-12-12-0-|
D|-----------------|----------------------0-|



[Verse 2]

e|-----------------|-----------------|-----------------|-----------------|
B|-----------------|-----------------|-----------------|-----------------|
G|-----------------|-----------------|-----------------|-----------------|
D|-----------------|---------------5-|-----------------|---------------2-|
A|---0-0-0-0-0-0-0-|-0-0-0-0-0-0-0-5-|---5-5-5-5-5-5-5-|-5-5-5-5-5-5-5-2-|
D|---0-0-0-0-0-0-0-|-0-0-0-0-0-0-0-5-|---5-5-5-5-5-5-5-|-5-5-5-5-5-5-5-2-|
PM   . . . . . . .   . . . . . . .       . . . . . . .   . . . . . . . 

e|-----------------|-----------------|-----------------|-----------------|
B|-----------------|-----------------|-----------------|-----------------|
G|-----------------|-----------------|-----------------|-----------------|
D|-----------------|---------------7-|-----------------|---------------0-|
A|---2-2-2-2-2-2-2-|-2-2-2-2-2-2-2-7-|---7-7-7-7-7-7-7-|-7-7-7-7-7-7-7-0-|
D|---2-2-2-2-2-2-2-|-2-2-2-2-2-2-2-7-|---7-7-7-7-7-7-7-|-7-7-7-7-7-7-7-0-|
PM   . . . . . . .   . . . . . . .       . . . . . . .   . . . . . 

e|-----------------|-----------------|-----------------|-----------------|---|
B|-----------------|-----------------|-----------------|-----------------|---|
G|-----------------|-----------------|-----------------|-----------------|---|
D|---0-------------|-------------x-5-|---5-5-5-5-5-5-5-|-5-5-5-5-5-5-5-5-|-2-|
A|---0-------------|-------------x-5-|---5-5-5-5-5-5-5-|-5-5-5-5-5-5-5-5-|-2-|
D|---0-------------|-------------x-5-|---5-5-5-5-5-5-5-|-5-5-5-5-5-5-5-5-|-2-|

---REST---

e|-----------------|-----------------|
B|-----------------|-----------------|
G|-----------------|-----------------|
D|-----------------|-8-8-8-8-8-8-8-9-|
A|-7-7-7-7-7-7-7-7-|-8-8-8-8-8-8-8-9-|
D|-7-7-7-7-7-7-7-7-|-8-8-8-8-8-8-8-9-|
PM . . . . . . . . 

[Chorus]

e|-----------------|-----------------|-----------------|-----------------|
B|-----------------|-----------------|-----------------|-----------------|
G|-----------------|-----------------|-----------------|-----------------|
D|---9-9-9-9-9-9-9-|-9-9-9-9-9-9-9-5-|---5-5-5-5-5-5-5-|-5-5-5-5-5-5-5-0-|
A|---9-9-9-9-9-9-9-|-9-9-9-9-9-9-9-5-|---5-5-5-5-5-5-5-|-5-5-5-5-5-5-5-0-|
D|---9-9-9-9-9-9-9-|-9-9-9-9-9-9-9-5-|---5-5-5-5-5-5-5-|-5-5-5-5-5-5-5-0-|

e|-----------------|-----------------|-----------------|-----------------|
B|-----------------|-----------------|-----------------|-----------------|
G|-----------------|-----------------|-----------------|-----------------|
D|---0-0-0-0-0-0-0-|-0-0-0-0-0-0-0-7-|---7-7-7-7-7-7-7-|-7-7-7-7-7-7-7-7-|
A|---0-0-0-0-0-0-0-|-0-0-0-0-0-0-0-7-|---7-7-7-7-7-7-7-|-7-7-7-7-7-7-7-7-|
D|---0-0-0-0-0-0-0-|-0-0-0-0-0-0-0-7-|---7-7-7-7-7-7-7-|-7-7-7-7-7-7-7-7-|

e|-----------------|-----------------|-----------------|-----------------|
B|-----------------|-----------------|-----------------|-----------------|
G|-----------------|-----------------|-----------------|-----------------|
D|-9---9---9---9---|-9---9---9---9---|-5---5---5---5---|-5---5---5---5---|
A|-9---9---9---9---|-9---9---9---9---|-5---5---5---5---|-5---5---5---5---|
D|-9---9---9---9---|-9---9---9---9---|-5---5---5---5---|-5---5---5---5---|

e|-----------------|-----------------|-----------------|------------------|
B|-----------------|-----------------|-----------------|------------------|
G|-----------------|-----------------|-----------------|----------------7-|
D|-0---0---0---0---|-0---0---0---0---|-7-7-7-7-7-7-7-7-|-7-7-7-7-7-7-7----|
A|-0---0---0---0---|-0---0---0---0---|-7-7-7-7-7-7-7-7-|-7-7-7-7-7-7-7--5-|
D|-0---0---0---0---|-0---0---0---0---|-7-7-7-7-7-7-7-7-|-7-7-7-7-7-7-7----|


[Bridge]

e|-----------------|-----------------|-----------------|-----------------|
B|-----------------|-----------------|-----------------|-----------------|
G|-----------------|-----------------|-----------------|-----------------|
D|---0-0---------7-|---7-7-4---4-4-5-|---5-5---------5-|---5-5-7---7-7-0-| x3
A|---0-0---------7-|---7-7-4---4-4-5-|---5-5---------5-|---5-5-7---7-7-0-|
D|---0-0---------7-|---7-7-4---4-4-5-|---5-5---------5-|---5-5-7---7-7-0-|

e|-----------------|-----------------|-----------------|-----------------|
B|-----------------|-----------------|-----------------|-----------------|
G|-----------------|-----------------|-----------------|---------------7-|
D|---0-0---------7-|---7-7-4---4-4-5-|---5-5---------5-|---5-5-7---7-7---| 
A|---0-0---------7-|---7-7-4---4-4-5-|---5-5---------5-|---5-5-7---7-7-5-|
D|---0-0---------7-|---7-7-4---4-4-5-|---5-5---------5-|---5-5-7---7-7---|

e|-----------------|-----------------|-----------------|------------------|
B|-----------------|-----------------|-----------------|------------------|
G|---7-7-7-7-7-7-7-|-7-7-7-7-7-7-7-7-|-7-7-7-7-7-7-7-7-|-7-7-7-7-7-7-7-11-|
D|-----------------|-----------------|-----------------|------------------|
A|---5-5-5-5-5-5-5-|-5-5-5-5-5-5-5-5-|-5-5-5-5-5-5-5-5-|-5-5-5-5-5-5-5--9-|
D|-----------------|-----------------|-----------------|------------------|

e|-------------------------|-------------------------|
B|-------------------------|-------------------------|
G|-11-11-11-11-11-11-11-11-|-11-11-11-11-11-11-11-11-|
D|-------------------------|-------------------------|
A|--9--9--9--9--9--9--9--9-|--9--9--9--9--9--9--9--9-|
D|-------------------------|-------------------------|

e|-------------------------|-------------------------|----------|-----------------|
B|-------------------------|-------------------------|----------|-----------------|
G|-14-14-14-14-14-14-14-14-|-14-14-14-14-14-14-14----|----------|-----------------|
D|-------------------------|-----------------------9-|---9------|---------------5-|
A|-12-12-12-12-12-12-12-12-|-12-12-12-12-12-12-12--9-|---9------|---------------5-|
D|-------------------------|-----------------------9-|---9------|---------------5-|

CHORUS + ENDING

e|-----------------|-----------------|-----------------|-----------------|
B|-----------------|-----------------|-----------------|-----------------|
G|-----------------|-----------------|-----------------|-----------------|
D|---5-5-5-5-5-5-5-|-5-5-5-5-5-5-5-0-|---0-0-0-0-0-0-0-|-0-0-0-0-0-0-0-7-|
A|---5-5-5-5-5-5-5-|-5-5-5-5-5-5-5-0-|---0-0-0-0-0-0-0-|-0-0-0-0-0-0-0-7-|
D|---5-5-5-5-5-5-5-|-5-5-5-5-5-5-5-0-|---0-0-0-0-0-0-0-|-0-0-0-0-0-0-0-7-|

e|-----------------|-----------------|-----------------|-----------------|
B|-----------------|-----------------|-----------------|-----------------|
G|-----------------|-----------------|-----------------|-----------------|
D|---7-7-7-7-7-7-7-|-7-7-7-7-7-7-7-7-|-9---9---9---9---|-9---9---9---9---|
A|---7-7-7-7-7-7-7-|-7-7-7-7-7-7-7-7-|-9---9---9---9---|-9---9---9---9---|
D|---7-7-7-7-7-7-7-|-7-7-7-7-7-7-7-7-|-9---9---9---9---|-9---9---9---9---|

e|-----------------|-----------------|-----------------|-----------------|
B|-----------------|-----------------|-----------------|-----------------|
G|-----------------|-----------------|-----------------|-----------------|
D|-5---5---5---5---|-5---5---5---5---|-0---0---0---0---|-0---0---0---0---|
A|-5---5---5---5---|-5---5---5---5---|-0---0---0---0---|-0---0---0---0---|
D|-5---5---5---5---|-5---5---5---5---|-0---0---0---0---|-0---0---0---0---|

e|-----------------|------------------|-|-|---|-|---|-|---|-|-|
B|-----------------|------------------|-|-|---|-|---|-|---|-|-|
G|-----------------|------------------|-|-|---|-|---|-|---|-|-|
D|-7-7-7-7-7-7-7-7-|-7-7-7-7-7-7-7--9-|-|-|-5-|-|-0-|-|-7-|-|-|
A|-7-7-7-7-7-7-7-7-|-7-7-7-7-7-7-7--9-|-|-|-5-|-|-0-|-|-7-|-|-|
D|-7-7-7-7-7-7-7-7-|-7-7-7-7-7-7-7--9-|-|-|-5-|-|-0-|-|-7-|-|-|

            
Submit corrections

↑ Back to top | Tablatures and chords for acoustic guitar and electric guitar, ukulele, drums are parodies/interpretations of the original songs. You may use it for private study, scholarship, research or language learning purposes only