Home » A » All Time Low »

All Time Low - Dear Maria Count Me In Tabs

Artists:  A B C D E F G H I J K L M N O P Q R S T U V W X Y Z # 

Dear Maria Count Me In Tabs

(ver. 0) Click to play this song!
All Time Low
 Rating:
4.3/5 (27 votes)
                [Pre-Verse]
E|----------------------------|----------------------------|
B|----------------------------|----------------------------|
G|-----------------------11---|--11-11-11-11-11-11-11-12---|
D|-----------------------x----|-----x--x--x--x--x--x--x----|
A|-----------------------9----|--9--9--9--9--9--9--9--10---|
D|----------------------------|----------------------------|

E|----------------------------|----------------------------|
B|----------------------------|----------------------------|
G|--12-12-11-11-9s-11-11-11---|--11-11-11-11-11-11-11-12---|
D|-----x--x--x--x--x-----x----|-----x--x--x--x--x--x--x----|
A|--10-10-9--9--7s-9--9--9----|--9--9--9--9--9--9--9--10---|
D|----------------------------|----------------------------|

E|----------------------------|----------------------------|
B|----------------------------|----------------------------|
G|--12-12-11-11-12s14-14-11---|--11-11-11-11-11-11-11-12---|
D|-----x--x--x--x--x-----x----|-----x--x--x--x--x--x--x----|
A|--10-10-9--9--10s12-12-9----|--9--9--9--9--9--9--9--10---|
D|----------------------------|----------------------------|

E|----------------------------|----------------------------|
B|----------------------------|----------------------------|
G|--12-12-11-11-9s-11-11-9----|--9--9--9--9--9--9--9--9----|
D|-----x--x--x--x--x-----x----|-----x--x--x--x--x--x--x----|
A|--10-10-9--9--7s-9--9--7----|--7--7--7--7--7--7--7--7----|
D|----------------------------|----------------------------|

E|----------------------------|
B|----------------------------|
G|--14-14-14-14-14-14-14-14---|
D|--x--x--x--x--x--x--x--x----|
A|--12-12-12-12-12-12-12-12---|
D|----------------------------|

[Verse]
E|-------|-------|-------|-------|-------|-------|
B|-------|-------|-------|-------|-------|-------|
G|--14---|--14---|-------|-------|-------|-------|
D|--x----|-------|-------|-------|-------|-------|
A|--12---|--12---|-------|-------|-------|-------|
D|-------|-------|-------|-------|-------|-------|

E|-------|----------------------------|----------------------------|
B|-------|----------------------------|----------------------------|
G|-------|-----------------7-----7----|--7-----7-----7-----7-------|
D|-------|-----------------x-----x----|--------x-----x-----x-------|
A|-------|-----------------5-----5----|--5-----5-----5-----5-------|
D|-------|----------------------------|----------------------------|

E|----------------------------|----------------------------|
B|----------------------------|----------------------------|
G|--7-----7-----7--7--7--7----|--7-----7-----7-----7-------|
D|--x-----x-----x--x--x--x----|--------x-----x-----x-------|
A|--5-----5-----5--5--5--5----|--5-----5-----5-----5-------|
D|----------------------------|----------------------------|

E|----------------------------|----------------------------|
B|----------------------------|----------------------------|
G|--7-----7-----7--7--7--7----|--7-----7-----7-----7-------|
D|--x-----x-----x--x--x--x----|--------x-----x-----x-------|
A|--5-----5-----5--5--5--5----|--5-----5-----5-----5-------|
D|----------------------------|----------------------------|

E|----------------------------|----------------------------|
B|----------------------------|----------------------------|
G|--7-----7-----7--7--7--7----|--7--7--7--7--7--7--7--7----|
D|--x-----x-----x--x--x--x----|----------------------------|
A|--5-----5-----5--5--5--5----|--5--5--5--5--5--5--5--5----|
D|----------------------------|----------------------------|

E|----------------------------|
B|----------------------------|
G|--9--9--9--9--9--9--9--11---|
D|----------------------------|
A|--7--7--7--7--7--7--7-------|
D|----------------------------|

[Chorus]
E|----------------|----------------------------|
B|----------------|----------------------------|
G|--11----11------|--12----------12-------14---|
D|-----12----12---|--------12----------12------|
A|----------------|----------------------------|
D|----------------|----------------------------|

E|----------------|----------------------------|----------------|----------------|
B|----------------|----------------------------|----------------|----------------|
G|--14----14------|--12----------12-------7----|--7-----7-------|--9-----9-------|
D|-----12----12---|--------12----------12------|-----7-----7----|-----7-----7----|
A|----------------|----------------------------|----------------|----------------|
D|----------------|----------------------------|----------------|----------------|

E|----------------|----------------|----------------|----------------------------|
B|----------------|----------------|----------------|----------------------------|
G|--6-----6-------|--6-----6-------|--11----11------|--12----------12-------14---|
D|-----7-----7----|-----7-----7----|-----12----12---|--------12----------12------|
A|----------------|----------------|----------------|----------------------------|
D|----------------|----------------|----------------|----------------------------|

E|----------------|----------------------------|----------------|----------------|
B|----------------|----------------------------|----------------|----------------|
G|--14----14------|--12----------12-------7----|--7-----7-------|--9-----9-------|
D|-----12----12---|--------12----------12------|-----7-----7----|-----7-----7----|
A|----------------|----------------------------|----------------|----------------|
D|----------------|----------------------------|----------------|----------------|

E|----------------|----------------------------|
B|----------------|----------------------------|
G|--6-----6-------|--6-----------6--------11---|
D|-----7-----7----|--------7-----------7--x----|
A|----------------|-----------------------9----|
D|----------------|----------------------------|

[Post-Chorus]
E|----------------------------|
B|----------------------------|
G|--11-11-11-11-11-11-11-12---|
D|-----x--x--x--x--x--x--x----|
A|--9--9--9--9--9--9--9--10---|
D|----------------------------|

E|----------------------------|----------------------------|
B|----------------------------|----------------------------|
G|--12-12-11-11-9s-11-11-11---|--11-11-11-11-11-11-11-12---|
D|-----x--x--x--x--x-----x----|-----x--x--x--x--x--x--x----|
A|--10-10-9--9--7s-9--9--9----|--9--9--9--9--9--9--9--10---|
D|----------------------------|----------------------------|

E|----------------------------|----------------------------|
B|----------------------------|----------------------------|
G|--12-12-11-11-12s14-14-11---|--11-11-11-11-11-11-11-12---|
D|-----x--x--x--x--x-----x----|-----x--x--x--x--x--x--x----|
A|--10-10-9--9--10s12-12-9----|--9--9--9--9--9--9--9--10---|
D|----------------------------|----------------------------|

E|----------------------------|----------------------------|
B|----------------------------|----------------------------|
G|--12-12-11-11-9s-11-11-9----|--9--9--9--9--9--9--9--9----|
D|-----x--x--x--x--x-----x----|-----x--x--x--x--x--x--x----|
A|--10-10-9--9--7s-9--9--7----|--7--7--7--7--7--7--7--7----|
D|----------------------------|----------------------------|

E|----------------------------|
B|----------------------------|
G|--14-14-14-14-14-14-14-14---|
D|--x--x--x--x--x--x--x--x----|
A|--12-12-12-12-12-12-12-12---|
D|----------------------------|

[Verse 2]
E|-------|-------|-------|-------|-------|-------|
B|-------|-------|-------|-------|-------|-------|
G|--14---|--14---|-------|-------|-------|-------|
D|--x----|-------|-------|-------|-------|-------|
A|--12---|--12---|-------|-------|-------|-------|
D|-------|-------|-------|-------|-------|-------|

E|-------|----------------------------|----------------|
B|-------|----------------------------|----------------|
G|-------|-----------------7-----7----|--7--7----------|
D|-------|-----------------x-----x----|-----x----------|
A|-------|-----------------5-----5----|--5--5----------|
D|-------|----------------------------|----------------|

E|----------------------------|----------------------------|
B|----------------------------|----------------------------|
G|-----------------------14---|--14-14-14-14-14-14-14-12---|
D|--------------------x--x----|-----x--x--x--x--x--x--x----|
A|--------------------x--12---|--12-12-12-12-12-12-12-10---|
D|--------------------x-------|----------------------------|

E|----------------------------|-------|-------|-------|
B|----------------------------|-------|-------|-------|
G|--12-12-12-11----11-11-11---|--9----|--9----|-------|
D|-----x--x--x-----x--x--x----|--x----|-------|-------|
A|--10-10-10-9-----9--9--9----|--7----|--7----|-------|
D|----------------------------|-------|-------|-------|

E|----------------------------|
B|----------------------------|
G|-----------------------11---|
D|----------------------------|
A|----------------------------|
D|----------------------------|

[Chorus]
E|----------------|----------------------------|
B|----------------|----------------------------|
G|--11----11------|--12----------12-------14---|
D|-----12----12---|--------12----------12------|
A|----------------|----------------------------|
D|----------------|----------------------------|

E|----------------|----------------------------|----------------|----------------|
B|----------------|----------------------------|----------------|----------------|
G|--14----14------|--12----------12-------7----|--7-----7-------|--9-----9-------|
D|-----12----12---|--------12----------12------|-----7-----7----|-----7-----7----|
A|----------------|----------------------------|----------------|----------------|
D|----------------|----------------------------|----------------|----------------|

E|----------------|----------------|----------------|----------------------------|
B|----------------|----------------|----------------|----------------------------|
G|--6-----6-------|--6-----6-------|--11----11------|--12----------12-------14---|
D|-----7-----7----|-----7-----7----|-----12----12---|--------12----------12------|
A|----------------|----------------|----------------|----------------------------|
D|----------------|----------------|----------------|----------------------------|

E|----------------|----------------------------|----------------|----------------|
B|----------------|----------------------------|----------------|----------------|
G|--14----14------|--12----------12-------7----|--7-----7-------|--9-----9-------|
D|-----12----12---|--------12----------12------|-----7-----7----|-----7-----7----|
A|----------------|----------------------------|----------------|----------------|
D|----------------|----------------------------|----------------|----------------|

E|----------------|----------------------------|
B|----------------|----------------------------|
G|--6-----6-------|--6-----------6-------------|
D|-----7-----7----|--------7-----------7--0----|
A|----------------|-----------------------0----|
D|----------------|-----------------------0----|

[Bridge]
E|----------------------------|
B|----------------------------|
G|----------------------------|
D|--0--0--x--------------7----|
A|--0--0--x--------------7----|
D|--0--0--x--------------7----|

E|------------------------|---------------|------------------------|-----------------|
B|------------------------|---------------|------------------------|-----------------|
G|------------------------|---------------|------------------------|-----------------|
D|--7--7--x--4---4--x--5--|--5--5--x---5--|--5--5--x--7---7--x--0--|--0--0--x---7----|
A|--7--7--x--4---4--x--5--|--5--5--x---5--|--5--5--x--7---7--x--0--|--0--0--x---7----|
D|--7--7--x--4---4--x--5--|--5--5--x---5--|--5--5--x--7---7--x--0--|--0--0--x---7----| (x5)

                                 PM-------------------|
E|----------------------------|----------------------------|
B|----------------------------|----------------------------|
G|----------------------------|----------------------------|
D|--7--7--x--4-----4--x--5----|----------------------------|
A|--7--7--x--4-----4--x--5----|--5--5--5--5--5--5--5--5----|
D|--7--7--x--4-----4--x--5----|--5--5--5--5--5--5--5--5----|

E|----------------------------|-------|
B|----------------------------|-------|
G|----------------------------|-------|
D|--------------7--7--7-------|-------|
A|--7--7--7--7--7--7--7-------|-------|
D|--7--7--7--7--7--7--7-------|-------|

[Chorus]
E|----------------------------|
B|----------------------------|
G|-----------------------14---|
D|----------------------------|
A|----------------------------|
D|----------------------------|

E|----------------|----------------------------|----------------|----------------|
B|----------------|----------------------------|----------------|----------------|
G|--14----14------|--12----------12-------7----|--7-----7-------|--9-----9-------|
D|-----12----12---|--------12----------12------|-----7-----7----|-----7-----7----|
A|----------------|----------------------------|----------------|----------------|
D|----------------|----------------------------|----------------|----------------|

E|----------------|----------------|----------------|----------|-------|
B|----------------|----------------|----------------|----------|-------|
G|--6-----6-------|--6-----6-------|--7--7s-19------|--18-14---|--12---|
D|-----7-----7----|-----7-----7----|----------------|----------|-------|
A|----------------|----------------|----------------|----------|-------|
D|----------------|----------------|----------------|----------|-------|

E|----------------------------|-------|----------------------------|-------|
B|----------------------------|-------|----------------------------|-------|
G|--12----------11h12h11------|--9----|--9-----------9h-11h9-------|--7----|
D|----------------------------|-------|----------------------------|-------|
A|----------------------------|-------|----------------------------|-------|
D|----------------------------|-------|----------------------------|-------|

E|----------|-------|
B|----------|-------|
G|--6--7----|--7----|
D|----------|-------|
A|----------|-------|
D|----------|-------|            
Submit corrections

↑ Back to top | Tablatures and chords for acoustic guitar and electric guitar, ukulele, drums are parodies/interpretations of the original songs. You may use it for private study, scholarship, research or language learning purposes only