» » »

All That Remains - Two Weeks Bass

Artists:  A B C D E F G H I J K L M N O P Q R S T U V W X Y Z # 

Two Weeks Bass

(ver. 3) Click to play this song!
All That Remains
 Rating:
4/5 (4 votes)

 Two Weeks lessons Tabs too difficult? Try these video lessons and learn fast
 
                Bass begins when singing begins
(this is how I play it and it sounds right)

Verse

E-------------------------------------------------|
B-----------------------------------------7-5-3-2-|
F#-3/5-55555-5/7-77777-7/8-88888-8/55555----------|
C#------------------------------------------------|


Pre-chorus

E------------------------------------|
B----------------------------7-5-3-2-|
F#-3/555--5/777-7/888-8/555----------|
C#-----------------------------------|


Chorus

E--------------|
B--------------|
F#----5--3--33-|
C#-0-----------|

Pre-solo

E--------------------------------|
B--------------------------------|
F#-3/55553--5/77775-7/88887-7532-|
C#-------------------------------|(X2)


Solo

E-------------------|
B-------------------|
F#---230------5-3-2-|
C#-0----5-3-1-------|

(back to chorus for rest of solo)

Rate and comment
            
Submit corrections


        Two Weeks lessons Hard to play? Try these video lessons and learn fast Two Weeks lessons
        
↑ Back to top | Tablatures and chords for acoustic guitar and electric guitar, ukulele, drums are parodies/interpretations of the original songs. You may use it for private study, scholarship, research or language learning purposes only