» » »

All That Remains - Two Weeks Bass

Artists:  A B C D E F G H I J K L M N O P Q R S T U V W X Y Z # 

Two Weeks Bass

(ver. 2) Click to play this song!
All That Remains
 Rating:
4/5 (4 votes)

 Two Weeks lessons Tabs too difficult? Try these video lessons and learn fast
 
                Two Weeks by All That Remains
Tuning is C# F# B E

I used the master recording bass track to tab this so this is right


~~~~ means to hold the note for that long
\\\\ means to slide down




Intro
|----------------|----------------|----------------|----------------|
|----------------|----------------|----------------|----------------|
|7---------------|5---------------|----------------|7---5-------5---|
|----------------|----------------|8---------------|--------8-------|

|----------------|    |----------------|
|----------------|    |----------------|
|----------------| X7 |----------------|
|----------------|    |--------7---7---|

|----------------|----------------|----------------|----------------|
|----------------|----------------|----------------|----------------|
|----------------|----------------|----------------|----------------|
|----------------|--------0-------|----------------|--------0---0---|

|----------------|----------------|----------------|----------------|
|----------------|----------------|----------------|----------------|
|----------------|----------------|----------------|----------------|
|----------------|--------0-------|----------------|--------7---7-7-|




Verse 1a
|----------------|----------------|----------------|----------------|
|----------------|----------------|----------------|----------------|
|7-7-7-7-7-7-7-7-|7-7-7-7-7-7-7-7-|5-5-5-5-5-5-5-5-|5-5-5-5-5-5-5-5-|
|----------------|----------------|----------------|----------------|

|----------------|----------------|----------------|----------------|
|----------------|----------------|----------------|----------------|
|----------------|----------------|--------7-7-7-7-|----------------|
|8-8-8-8-8-8-8-8-|8-8-8-8-8-8-8-8-|0-0-0-0---------|7---0-0-8-8-8-8-|

|----------------|----------------|----------------|----------------|
|----------------|----------------|----------------|----------------|
|7-7-7-7-7-7-7-7-|7-7-7-7-7-7-7-7-|5-5-5-5-5-5-5-5-|5-5-5-5-5-5-5-5-|
|----------------|----------------|----------------|----------------|

|----------------|----------------|----------------|----------------|
|----------------|----------------|----------------|----------------|
|----------------|----------------|--------7-7-7-7-|----------------|
|8-8-8-8-8-8-8-8-|8-8-8-8-8-8-8-8-|0-0-0-0---------|7-7-0-0-8---8---|




Verse 1b
|----------------|----------------|----------------|----------------|
|----------------|----------------|----------------|----------------|
|----------------|----------------|----------------|----------------|
|0-0-0-0-0-------|--0-0-0-0---0---|2-2-2-2-2-------|--2-2---2---2---|

|----------------|----------------|----------------|----------------|
|----------------|----------------|----------------|----------------|
|----------------|----------------|----------------|----------------|
|3-3-3-3-3-------|--3-3-3-3---3---|0-0-0-0---------|--0-0-0-7-7-7-7-|

|----------------|----------------|----------------|----------------|
|----------------|----------------|----------------|----------------|
|----------------|----------------|----------------|----------------|
|0-0-0-0-0-------|--0-0-0-0---0---|2-2-2-2-2-------|--2-2---2---2---|

|----------------|----------------|----------------|----------------|
|----------------|----------------|----------------|----------------|
|----------------|----------------|----------------|----------------|
|3-3-3-3-3-------|--3-3-3-3---3---|0-0-0-0-0-------|--0-0-0-7---7---|




Chorus 1
|----------------|----------------|----------------|----------------|
|----------------|----------------|----------------|----------------|
|----------------|5~~~~~~~~~~~~~~~|----------------|----------------|
|0~~~~~~~~~~~~~~~|----------------|8~~~~~~~~~~~~~~~|~~~~~~~~~~~~~~~~|

|----------------|----------------|----------------|----------------|
|----------------|----------------|----------------|----------------|
|----------------|5~~~~~~~~~~~~~~~|----------------|--------5~~~~~~~|
|0~~~~~~~~~~~~~~~|----------------|8~~~~~~~~~~~~~~~|~~~~~~~~--------|

|----------------|----------------|----------------|----------------|
|----------------|----------------|----------------|----------------|
|7~~~~~~~~~~~~~~~|5~~~~~~~~~~~~~~~|----------------|----------------|
|----------------|----------------|8~~~~~~~~~~~~~~~|~~~~0---2---3---|

|----------------|----------------|----------------|----------------|
|----------------|----------------|----------------|----------------|
|----------------|----------------|----------------|----------------|
|0~~~~~~~~~~~~~~~|2~~~~~~~~~~~~~~~|3~~~~~~~~~~~~~~~|~~~~~~~~10\\\\\\|




Verse 2
|----------------|----------------|----------------|----------------|
|----------------|----------------|----------------|----------------|
|7-7-7-7-7-7-7-7-|7-7-7-7-7-7-7-7-|5-5-5-5-5-5-5-5-|5-5-5-5-5-5-5-5-|
|----------------|----------------|----------------|----------------|

|----------------|----------------|----------------|----------------|
|----------------|----------------|----------------|----------------|
|----------------|----------------|--------7-7-7-7-|----------------|
|8-8-8-8-8-8-8-8-|8-8-8-8-8-8-8-8-|0-0-0-0---------|7---0-0-7-7-7-7-|

Play Verse 2 Again

Then play Verse 1b




Chorus 2
|----------------|----------------|----------------|----------------|
|----------------|----------------|----------------|----------------|
|----------------|5~~~~~~~~~~~~~~~|----------------|----------------|
|0~~~~~~~~~~~~~~~|----------------|8~~~~~~~~~~~~~~~|~~~~~~~~~~~~~~~~|

|----------------|----------------|----------------|----------------|
|----------------|----------------|----------------|----------------|
|----------------|5~~~~~~~~~~~~~~~|----------------|--------5~~~~~~~|
|0~~~~~~~~~~~~~~~|----------------|8~~~~~~~~~~~~~~~|~~~~~~~~--------|

|----------------|----------------|----------------|----------------|
|----------------|----------------|----------------|----------------|
|7~~~~~~~~~~~~~~~|5~~~~~~~~~~~~~~~|----------------|----------------|
|----------------|----------------|8~~~~~~~~~~~~~~~|~~~~0---2---3---|

|----------------|----------------|----------------|----------------|
|----------------|----------------|----------------|----------------|
|----------------|----------------|----------------|7---5-------5---|
|0~~~~~~~~~~~~~~~|2~~~~~~~~~~~~~~~|3~~~~~~~~~~~~~~~|--------8-------|




Guitar Riff
|----------------|----------------|----------------|----------------|
|----------------|----------------|----------------|----------------|
|7---7---7-7-7-7-|5-5-5-5-5-5-5-5-|----------------|--------5-5-7-7-|
|----------------|----------------|8-8-8-8-8-8-8-8-|7-7-8-8---------|

|----------------|----------------|----------------|----------------|
|----------------|----------------|----------------|----------------|
|----------------|----------------|----------------|7---5-----------|
|0-0-0-0-0-0-0-0-|2-2-2-2-2-2-2-2-|3-3-3-3-3-3-3-3-|--------8---0---|

Play Guitar Riff Again




Guitar Solo
|----------------|----------------|----------------|----------------|
|----------------|--------5---4---|----------------|----------------|
|----------------|5~~~~~~~--------|7~~~~~~~5~~~~~~~|----------------| X4
|0~~~~~~~7---8---|----------------|----------------|3~~~~~~~5~~~~~~~|

|----------------|----------------|----------------|----------------|
|----------------|----------------|----------------|----------------|
|----------------|----------------|5~~~~~~~~~~~~~~~|----------------|
|0-------0-------|0~~~~~~~~~~~~~~~|----------------|8~~~~~~~~~~~~~~~|

|----------------|----------------|----------------|----------------|
|----------------|----------------|----------------|----------------|
|----------------|----------------|5~~~~~~~~~~~~~~~|----------------|
|~~~~~~~~~~~~~~~~|0~~~~~~~~~~~~~~~|----------------|8~~~~~~~~~~~~~~~|

|----------------|----------------|----------------|----------------|
|----------------|----------------|----------------|----------------|
|--------5~~~~~~~|7~~~~~~~~~~~~~~~|5~~~~~~~~~~~~~~~|----------------|
|~~~~~~~~--------|----------------|----------------|8~~~~~~~~~~~~~~~|

|----------------|----------------|----------------|----------------|
|----------------|----------------|----------------|----------------|
|----------------|----------------|----------------|----------------|
|~~~~0---2---3---|0~~~~~~~~~~~~~~~|2~~~~~~~~~~~~~~~|3~~~~~~~~~~~~~~~|

|----------------|
|----------------|
|------------5---|
|~~~~~~~~~~~~----|

Play Verse 2 Twice




Verse 3b
|----------------|----------------|----------------|----------------|
|----------------|----------------|----------------|----------------|
|----------------|----------------|----------------|----------------|
|0-0-0-0-0-------|--0-0-0-0---0---|2-2-2-2-2-------|--2-2---2---2---|

|----------------|----------------|----------------|----------------|
|----------------|----------------|----------------|----------------|
|----------------|----------------|----------------|----------------|
|3-3-3-3-3-------|--3-3-3-3---3---|0-0-0-0---------|--0-0-0-7-7-7-7-|




Chorus 3
|----------------|----------------|----------------|----------------|
|----------------|----------------|----------------|----------------|
|----------------|5~~~~~~~~~~~~~~~|----------------|--------5~~~~~~~|
|0~~~~~~~~~~~~~~~|----------------|8~~~~~~~~~~~~~~~|~~~~~~~~--------|

|----------------|----------------|----------------|----------------|
|----------------|----------------|----------------|----------------|
|----------------|5~~~~~~~~~~~~~~~|----------------|--------5~~~~~~~|
|0~~~~~~~~~~~~~~~|----------------|8~~~~~~~~~~~~~~~|~~~~~~~~--------|

|----------------|----------------|----------------|----------------|
|----------------|----------------|----------------|----------------|
|7~~~~~~~~~~~~~~~|5~~~~~~~~~~~~~~~|----------------|----------------|
|----------------|----------------|8~~~~~~~~~~~~~~~|~~~~0---2---3---|

|----------------|----------------|----------------|----------------|
|----------------|----------------|----------------|----------------|
|----------------|----------------|----------------|7---5-------5---|
|0~~~~~~~~~~~~~~~|2~~~~~~~~~~~~~~~|3~~~~~~~~~~~~~~~|--------8-------|

Play Chorus 3 Again




Outro
|----------------|----------------|
|--------5---4---|----------------|
|----------------|7~~~~~~~~~~~~\\\|
|7---8-----------|----------------|
            
Submit corrections


        Two Weeks lessons Hard to play? Try these video lessons and learn fast Two Weeks lessons
        
↑ Back to top | Tablatures and chords for acoustic guitar and electric guitar, ukulele, drums are parodies/interpretations of the original songs. You may use it for private study, scholarship, research or language learning purposes only