» » »

All That Remains - Two Weeks Tabs

Artists:  A B C D E F G H I J K L M N O P Q R S T U V W X Y Z # 

Two Weeks Tabs

(ver. 1) Click to play this song!
All That Remains
 Rating:
4/5 (4 votes)

 Two Weeks lessons Tabs too difficult? Try these video lessons and learn fast
 
                -------------------------------------------------------------------------------
-------------------------------------------------------------------------------

Tuning:DGCFAD
- This isn't a complete version i did the best i could by ear and im hoping somone can 
with this and post a complete version

Intro

e|---------------------------------------------------------------------------|
B|---------------------------------------------------------------------------|
G|---------------------------------------------------------------------------|
D|-8-------------6-----6-4-3-4-4-----8-6--6-8-9-8-6--------------------------|
A|-6-6-6-9-8-6-8-4-4-4---------2-2-2-----9----------9-8-6-8------------------|
E|---------------------------------------------------------------------------|
     . .           . .           . .

Verse
(listen to song for picking pattern)
e|---------------------------------------------------------------------------|
B|---------------------------------------------------------------------------|
G|---------------------------------------------------------------------------|
D|---------------------------------------------------------------------------|
A|-4/6-6--6--6-------6-6/8-8--8--8----------8/9-9--9--9------9--9\6--6--6----|
E|----x-xx-xx-x-000-x-x---x-xx-xx-x-000-000----x-xx-xx-x-000--x-x--xx-xx-xx--|

e|---------------------------------------------------------------------------|
B|---------------------------------------------------------------------------|
G|---------------------------------------------------------------------------|
D|-----8-6-------------------------------------------------------------------|
A|-6-------9-8---------------------------------------------------------------|
E|--xx-----------------------------------------------------------------------|

Chorus

e|---------------------------------------------------------------------------|
B|---------------------------------------------------------------------------|
G|----------------1111-1010--------------------------------------------------|
D|-1313-1111-1313-----------1111-1313-1111-1313-88-1313-88-1111----1111------|
A|--------------------------------------------------------------99------99---|
E|---------------------------------------------------------------------------|
   . .  . .  . .  . .  . .  . .  . .  . .  . .  .. . .  .. . .  .. . .  ..


| /  slide up
| \  slide down
| h  hammer-on
| p  pull-off
| ~  vibrato
| +  harmonic
| x  Mute note
===============================================================================
            
Submit corrections


        Two Weeks lessons Hard to play? Try these video lessons and learn fast Two Weeks lessons
        
↑ Back to top | Tablatures and chords for acoustic guitar and electric guitar, ukulele, drums are parodies/interpretations of the original songs. You may use it for private study, scholarship, research or language learning purposes only