» » »

All That Remains - Hold On Bass

Artists:  A B C D E F G H I J K L M N O P Q R S T U V W X Y Z # 

Hold On Bass

(ver. 2) Click to play this song!
All That Remains
 Rating:
4/5 (4 votes)

 Hold On lessons Tabs too difficult? Try these video lessons and learn fast
 
                Tuning: Db Gb B E
Tempo: about 124

Fixed some notation issues. This is a much more detailed tab (in score form). 


 
(about 0:12)                       (0:16)
                                   Don't touch me I don't wanna feel your skin
E |---------------|---------------||------------------|-----------------|
B |---------------|---------------||------------------|-----------------|
Gb|3-----5---2----|---------------||------------------|-----------------|
Db|--0000--00--005|3-5-0-----7\---||000---000-007\----|000-----5---7\---|
   E SSSSE SSE SSE E E H.    Q      SSE erSSE SSQ      SSE qr  Q   Q
 PM------|  -|  -|                  ------------|     ---|
                                      
 I know that your only gonna hurt me   I hear you I don't wanna do it again
E |-----------------|-----------------||------------------|-----------------|
B |-----------------|-----------------||------------------|-----------------|
Gb|-----------------|-----------------||------------------|-----------------|
Db|000---000-007\---|000-3---5---7\---||000---000-007\----|000-----5---7\---|
   SSE erSSE SSQ     SSE Q   Q   Q      SSE erSSE SSQ      SSE  qr Q    Q
  PM-----------|     ---|               -------------|      ---|
                                  (0:30)
Cuz we both know this is not a passing trait        All along a failure to connect and to
E |-----------------|------------||----------------|----------------|----------------|
B |-----------------|------------||----------------|----------------|----------------|
Gb|-----------------|------------||3-----5---2-----|----------------|3-----5---2-----|
Db|000---000-007\---|000-3---5---||--0000--00--005-|3-5-0-000-000000|--0000--00--005-|
  SSE erSSE SSQ     SSE Q   Q     E SSSSE SSE SSE  E E E SSE SSSSSS E SSSSE SSE SSE
  PM-----------|     ---|            ----| --| --|          --------|  ----| --| --|

   compromise        Right or wrong its easy to react time to realize (NO MORE) And you keep
E |----------------||----------------|----------------|----------------|----------------||
B |----------------||----------------|----------------|----------------|----------------||
Gb|------------5---||3-----5---2-----|----------------|3-----5---2-----|--------7---5---||
Db|3-5-0-000-00----||--0000--00--005-|3-5-0-000-000000|--0000--00--005-|3-5-0-----------||
   E E E SSE SSQ     E SSSSE SSE SSE  E E E SSE SSSSSS E SSSSE SSE SSE  E E Q   Q    Q
         PM----|       ----| --| --|          --------|  ----| --| --|
 (0:46)
talking but we both know it's not true I still know that you're wrong          and no 
E |------------------|           |----------------|------------------|----------------|
B |------------------|           |----------------|------------------|----------------|
Gb|3-------(3)-5-3-2-|           |----------------|5-------(5)-2-3---|----------------|
Db|------------------|           |0-------0-2-3-0-|----------------5-|0-----------0-0-|
   H--------E  E E E              H       E E E E  H--------E  E E E  H.          E E

matter what we both had to go thru I just can't  I can't hold on
         E |-----------------|----------------|----------------|------------------|
         B |-----------------|----------------|----------------|------------------|
         Gb|3-------(3)-5-3-2|----------------|5-------3---2---|------------------|
         Db|-----------------|0-------0-2-3-0-|----------------|000---000-007\----|
            H--------E  E E E H       E E E E  H       Q   Q    SSE erSSE SSQ 
                                                              PM------------|   
   (1:02)
 I can't hold on   we  cannot waste our lives this way   How far we've fallen when the road b4 us
E |-----------------|-----------------|-----------------||------------------|-----------------|
B |-----------------|-----------------|-----------------||------------------|-----------------|
Gb|-----------------|-----------------|-----------------||------------------|-----------------|
Db|000-----5---7\---|000---000-007\---|000-3---5---7\---||000---000-007\----|000-----5---7\---|
   SSE qr  Q   Q     SSE erSSE SSQ     SSE Q   Q   Q      SSE erSSE SSQ      SSE qr  Q   Q
 PM--|               -----------|     ---|                ------------|     ---|

                                 (1:17)
   leaves apart      and you keep talking but we both know it's not true  I still know (I STILL 
E |-----------------|------------|------------------|               |----------------|
B |-----------------|------------|------------------|               |----------------|
Gb|-----------------|------------|3-------(3)-5-3-2-|               |----------------|
Db|000---000-007\---|000-3---5---|------------------|               |0-------0-2-3-0-|  
   SSE erSSE SSQ     SSE Q   Q    H--------E  E E E                  H       E E E E
  PM-----------|     --|

KNOW)that you're wrong(YOU'RE WRONG)and no matter what we both had to go thru I just can't
E |------------------|----------------|    |-----------------|          |----------------|
B |------------------|----------------|    |-----------------|          |----------------|
Gb|5-------(5)-2-3---|----------------|    |3-------(3)-5-3-2|          |----------------|
Db|----------------5-|0-----------0-0-|    |-----------------|          |0-------0-2-3-0-|
   H--------E  E E E  H.          E E       H--------E  E E E            H       E E E E 

   I can't hold on            and when you asked if I believed and I told you  strength of it
E |-----------------|---------------------|------------------|             |----------------|
B |-----------------|---------------------|------------------|             |----------------|
Gb|5-------3---2----|---------------------|3-------(3)-5-3-2-|             |----------------|
Db|-----------------|0---------------7\---|------------------|             |0-------0-2-3-0-| 
   H       Q   Q     W               Q     H--------E  E E E                H       E E E E

(STRENGTH OF IT) made me strong (ME STRONG) but I can't feel a thing that I used to   and I can't
E |------------------|         |----------------|------------------|             |---------------|
B |------------------|         |----------------|------------------|             |---------------|
Gb|5-------(5)-2-3---|         |----------------|3-------(3)-5-3-2-|             |---------------|
Db|----------------5-|         |0-----------0-0-|------------------|             |0-------0-2-3-0|
   H--------E  E E              H.          E E  H--------E  E E E                H       E E E E
          
  I can't hold on  (1:47)                                 
E |----------------|---------------|----------------|----------------|----------------|
B |----------------|---------------|----------------|----------------|----------------|
Gb|5-------3---2---|---------------|----------------|7-------5-------|3--5--2---------|
Db|----------------|0----------0-0-|0-----------0-0-|----------------|---------5--3-5-|
   H       Q   Q    H.         E E  H.          E E  H       H        E. S. E. E. E E
 
                                                                COME GET SOME
E |----------------|----------------|----------------|----------------|
B |----------------|----------------|----------------|----------------|
Gb|.-------.-------|------------2-3-|.-------.-------|3--5--2---------|
Db|0-------0-------|0--2--3--5------|0-------0-------|---------5--3-5-|
   Q   qr  Q   qr   E. S. E. E. E E  Q   qr  Q   qr   E. S. E. E. E E

(1:59)
E |----------------|----------------|----------------|----------------|
B |----------------|----------------|----------------|----------------|
Gb|----------------|------------2233|----------------|333555222-------|
Db|0000000000000000|000222333555----|0000000000000000|---------5553355|
PM--------------------------------------------------------------------|
   SSSSSSSSSSSSSSSSSSSSSSSSSSSSSSSSSSSSSSSSSSSSSSSSSSSSSSSSSSSSSSSSSSS

E |----------------|----------------|----------------|----------------|
B |----------------|----------------|----------------|----------------|
Gb|----------------|------------2233|----------------|333555222-------|
Db|0000000000000000|000222333555----|0000000000000000|---------5553355|
PM--------------------------------------------------------------------|
   SSSSSSSSSSSSSSSSSSSSSSSSSSSSSSSSSSSSSSSSSSSSSSSSSSSSSSSSSSSSSSSSSSS

                                     (2:18)
             And you keep talking but we both know it's not true   I still know (I STILL
E |-----------------|----------------|------------------|                |----------------|
B |-.---------.-----|----------------|------------------|                |----------------|
Gb|22--.-33--22-7-5-|--------5-------|3-------(3)-5-3-2-|                |----------------|
Db|---33------------|0---------------|------------------|                |0-------0-2-3-0-| 
   SE SE SSsrSE E E  H       H        H--------E  E E E                   H       E E E E 

KNOW)that you're wrong(YOU'RE WRONG)and no matter what we both had to go thru I just can't
E |------------------|----------------|------------------|                 |----------------|
B |------------------|----------------|------------------|                 |----------------|
Gb|5-------(5)-2-3---|----------------|3-------(3)-5-3-2-|                 |----------------|
Db|----------------5-|0-----------0-0-|------------------|                 |0-------0-2-3-0-| 
   H--------E  E E E  H.          E E  H--------E  E E E                    H       E E E E 

   I can't hold on            And when you asked if I believed and I told you Strength of it
                (I can't hold on)
E |------------------|-------------------|-----------------|             |----------------|
B |------------------|-------------------|-----------------|             |----------------|
Gb|5-------(5)-2-3---|-------------------|3-3-3-3-3-3-3-3/-|             |7-7-7-7-7-7-7-7-|
Db|----------------5-|0-------12.\-------|-----------------|             |----------------|
   H--------E  E E E  H       H           E E E E E E E E                 E E E E E E E E 

        made me strong          But I can't feel a thing that I used to  And I can't
 (STRENGTH OF IT) (You know it made me strong)
E |----------------|----------------|-----------------|              |----------------|
B |----------------|----------------|-----------------|              |----------------|
Gb|5-5-5-5-5-5-5-5-|----------------|3-3-3-3-3-3-3-3/-|              |7-7-7-7-7-7-7-7-|
Db|----------------|0-0-0-0-0-0-0-0-|-----------------|              |----------------| 
   E E E E E E E E  E E E E E E E E  E E E E E E E E                  E E E E E E E E

                                        (2:49)
       I can't hold on
E |----------------|---------------------|-----------------------------------|
B |----------------|---------------------|-----------------------------------|
Gb|5-5---5-3-3-2---|---------------------|-----------------|--------5--------|
Db|----------------|0-----------0-0-7\---|000---000-007\---|000--------------|
   E Q   E E E Q    H.          E E Q     SSE erSSE SSQ     SSE qr  Q   qr


key:
W=whole note                    \=slide down
H.=dotted half note             /slide up
H=half note                     note--note=tie
Q=quarter note                  PM-----|=palm mute
E.=dotted eighth note           |.---|
E=eight note                    |note|=staccato note
S.=dotted sixteenth note
S=sixteenth note
sr=sixteenth rest
er=eighth rest
qr=quarter rest
            
Submit corrections


        Hold On lessons Hard to play? Try these video lessons and learn fast Hold On lessons
        
↑ Back to top | Tablatures and chords for acoustic guitar and electric guitar, ukulele, drums are parodies/interpretations of the original songs. You may use it for private study, scholarship, research or language learning purposes only