» » »

All That Remains - Hold On Tabs

Artists:  A B C D E F G H I J K L M N O P Q R S T U V W X Y Z # 

Hold On Tabs

(ver. 1) Click to play this song!
All That Remains
 Rating:
4/5 (4 votes)

 Hold On lessons Tabs too difficult? Try these video lessons and learn fast
 
                All that Remains!
Tuning: C# F# B E G# C#


*Update #1: 11/28/10
 Changed Chorus so you're not jumping all over the fret board.
 Spaced out tab more efficiently so it's easier to read.
 Corrected some typos before the solo.*

(Intro 0:00-0:15)
C#|-------------------------------------------------------------------------|
G#|-------------------------------------------------------------------------|
E |-----------------------9-10-9--------------------------------------------|
B |--9------11----12----7-9-10-9---------------------------5-7--------------|
F#|--7------9-----10----5----------------------------------3-5--------------|
C#|----0000----00----00----------0000-5-7-8p5-0000-4-5-7p4------------------|


C#|-------------------------------------------------------------------------|
G#|-------------------------------------------------------------------------|
E |-----------------------9-10-9--------------------------------------------|
B |--9------11----12----7-9-10-9---------------------------5-4--------------|
F#|--7------9-----10----5----------------------------------3-2--------------|
C#|----0000----00----00----------0000-5-7-8p5-0000-4-5-7p4------------------|


C#|-------------------------------------------------------------------------|
G#|-------------------------------------------------------------------------|
E |-------------------------------------------------------------------------|
B |--5------7----5----------------------------------------------------------|
F#|--3------5----3----7-5-7-2--9>>------------------------------------------|
C#|----0000---00---00-5-3-5-0--7>>------------------------------------------|


=============================================================================


(0:16-0:30)
C#|-------------------------------------------------------------------------|
G#|-------------------------------------------------------------------------|
E |-------------------------------------------------------------------------|
B |-------------------------7-9>>------------------------5-7-9>>------------|
F#|----------------9>>------5-7>>---------------9>>------3-5-7>>------------|
C#|--0000-0-0-0-00-7>>-0000-------0000-0-0-0-00-7>>-0000--------------------|


C#|-------------------------------------------------------------------------|
G#|-------------------------------------------------------------------------|
E |-------------------------------------------------------------------------|
B |-------------------------7-9>>------------------------5-7----------------|
F#|----------------9>>------5-7>>---------------9>>------3-5----------------|
C#|--0000-0-0-0-00-7>>-0000-------0000-0-0-0-00-7>>-0000--------------------|


=============================================================================


(0:31-0:45)
C#|-------------------------------------------------------------------------|
G#|-------------------------------------------------------------------------|
E |--------------7----------------------------------------------------------|
B |--5------7----7----7-9-10-9----------------------------------------------|
F#|--3------5----5----5-7-8--7----------------------------------------------|
C#|----0000---00---00-----------00000000------------------------------------|


C#|-------------------------------------------------------------------------|
G#|-------------------------------------------------------------------------|
E |--------------7----------------------------------------------------------|
B |--5------7----7----7-9-10-9------7---------------------------------------|
F#|--3------5----5----5-7-8--7------5---------------------------------------|
C#|----0000---00---00----------0000-----------------------------------------|


C#|-------------------------------------------------------------------------|
G#|-------------------------------------------------------------------------|
E |--------------7----------------------------------------------------------|
B |--5------7----7----7-9-10-9----------------------------------------------|
F#|--3------5----5----5-7-8--7----------------------------------------------|
C#|----0000---00---00----------00000000-------------------------------------|


C#|-------------------------------------------------------------------------|
G#|-------------------------------------------------------------------------|
E |--------------7----------------------------------------------------------|
B |--5------7----7----7-9-10-9-9-7------------------------------------------|
F#|--3------5----5----5-7-8--7-7-5------------------------------------------|
C#|----0000---00---00-------------------------------------------------------|


=============================================================================


CHORUS (0:46-1:00)
C#|-------------------------------------------------------------------------|
G#|-------------------------------------------------------------------------|
E |-------------------------------------------------------------------------|
B |--9-7---7---------10-9---9---------9-7---7--------7----------------------|
F#|------------10---------------10--------------9------10---9---7-6-7-------|
C#|------0---0----00------0---0----00-----0---0---00------0---0-------------|


C#|-------------------------------------------------------------------------|
G#|-------------------------------------------------------------------------|
E |-----------------------------------2--2---4------------------------------|
B |--9-7---7---------10-9---9---------0--0---2------------------------------|
F#|------------10---------------10---------2--------------------------------|
C#|------0---0----00------0---0----00---------------------------------------|


=============================================================================


(1:01-1:16)
C#|-------------------------------------------------------------------------|
G#|-------------------------------------------------------------------------|
E |-------------------------------------------------------------------------|
B |---------------------------7-9>>----------------------5-7-9>>------------|
F#|--9>>-------------9>>------5-7>>-------------9>>------3-5-7>>------------|
C#|--7>>-0000-000-00-7>>-0000-------0000-000-00-7>>-0000--------------------|


C#|-------------------------------------------------------------------------|
G#|-------------------------------------------------------------------------|
E |-------------------------------------------------------------------------|
B |-----------------------7-9>>--------------------5-7----------------------|
F#|--------------9>>------5-7>>-----------9>>------3-5----------------------|
C#|--0000-000-00-7>>-0000-----0000-000-00-7>>-0000--------------------------|


=============================================================================


CHORUS (1:17-1:46)
C#|-------------------------------------------------------------------------|
G#|-------------------------------------------------------------------------|
E |-------------------------------------------------------------------------|
B |--9-7---7---------10-9---9---------9-7---7--------7----------------------|
F#|------------10---------------10--------------9------10---9---7-6-7-------|
C#|------0---0----00------0---0----00-----0---0---00------0---0-------------|


C#|-------------------------------------------------------------------------|
G#|-------------------------------------------------------------------------|
E |------------------------------------7---9-7-9-7--------------------------|
B |--9-7---7---------10-9---9--------7-7---9-7-9-7--------------------------|
F#|------------10--------------10----5-5---7-5-7-5--------------------------|
C#|------0---0----00-----0---0----00-----7----------------------------------|


C#|-------------------------------------------------------------------------|
G#|-------------------------------------------------------------------------|
E |-------------------------------------------------------------------------|
B |--9-7---7---------10-9---9---------9-7---7--------7----------------------|
F#|------------10---------------10--------------9------10---9---7-6-7-------|
C#|------0---0----00------0---0----00-----0---0---00------0---0-------------|

C#|-------------------------------------------------------------------------|
G#|-------------------------------------------------------------------------|
E |---------------------------------2--2---4--------------------------------|
B |--9-7---7---5----10-9---9---5----0--0---2--------------------------------|
F#|--------------------------------------2----------------------------------|
C#|------0---0---00------0---0---00-----------------------------------------|


=============================================================================


(1:47-1:56)
C#|-------------------------------------------------------------------------|
G#|-------------------------------------------------------------------------|
E |-------------------------------------------------------------------------|
B |--9-7-5-7-4----------------------------------2-4-5-----------------------|
F#|--7-5-3-5-2--------2----3-2--2----5-2--2-4-5-0-2-3-----------------------|
C#|------------5-3-5--0-00------0-00------0-2-3-----------------------------|


C#|-------------------------------------------------------------------------|
G#|-------------------------------------------------------------------------|
E |-------------------------------------------------------------------------|
B |-------------------------------------------------------------------------|
F#|--2----3-2--2----5-2-----------------------------------------------------|
C#|--0-00------0-00---------------------------------------------------------|


I have most of the solo down but I didn't want to post it until it is completely picked 
and finished, I'll update with the solo as soon as I'm finished!


Please rate also!
            
Submit corrections


        Hold On lessons Hard to play? Try these video lessons and learn fast Hold On lessons
        
↑ Back to top | Tablatures and chords for acoustic guitar and electric guitar, ukulele, drums are parodies/interpretations of the original songs. You may use it for private study, scholarship, research or language learning purposes only