Home » A » All That Remains »

All That Remains - Hold On Bass

Artists:  A B C D E F G H I J K L M N O P Q R S T U V W X Y Z # 

Hold On Bass

(ver. 1) Click to play this song!
All That Remains
 Rating:
4/5 (4 votes)
                Tuning: Db Gb B E
Tempo: about 124

This is the more compact version of my other Hold On tab (it's exactly the same note 
wise, just without note values,
lyrics, palm muting, and it's not in score form).

Intro (about 0:12)
E |---------------|---------------|
B |---------------|---------------|
Gb|3-----5---2----|---------------|
Db|--0000--00--005|3-5-0-----7\---|

Verse 1 (0:16)                                             1st ending---------| 2nd ending--|
E | |------------------|-----------------|-----------------|-----------------| |------------|
B |.|------------------|-----------------|-----------------|-----------------|.|------------|
Gb|.|------------------|-----------------|-----------------|-----------------|.|------------|
Db| |000---000-007\----|000-----5---7\---|000---000-007\---|000-3---5---7\---| |000-3---5---|

   (0:30)                                             1st ending-------| 2nd ending-----|
E |----------------|----------------|----------------|----------------| |---------------|
B |----------------|----------------|----------------|----------------|.|---------------|
Gb|3-----5---2-----|----------------|3-----5---2-----|------------5---|.|--------7---5--|
Db|--0000--00--005-|3-5-0-000-000000|--0000--00--005-|3-5-0-000-00----| |3-5-0----------|

Chorus 1
E |------------------|----------------|------------------|----------------|
B |------------------|----------------|------------------|----------------|
Gb|3-------(3)-5-3-2-|----------------|5-------(5)-2-3---|----------------|
Db|------------------|0-------0-2-3-0-|----------------5-|0-----------0-0-|

E |------------------|----------------|----------------|------------------|
B |------------------|----------------|----------------|------------------|
Gb|3-------(3)-5-3-2-|----------------|5-------3---2---|------------------|
Db|------------------|0-------0-2-3-0-|----------------|000---000-007\----|

  (1:02)
E |-----------------|-----------------|-----------------|
B |-----------------|-----------------|-----------------|
Gb|-----------------|-----------------|-----------------|
Db|000-----5---7\---|000---000-007\---|000-3---5---7\---|

Verse 2 (1:09)          1st ending--------| 2nd ending-----|
E | |------------------|-----------------| |---------------|
B |.|------------------|-----------------|.|---------------|
Gb|.|------------------|-----------------|.|---------------|
Db| |000---000-007\----|000-----5---7\---| |000-3---5------|

Chorus 2 (1:17)
E | |------------------|----------------|------------------|----------------|
B |.|------------------|----------------|------------------|----------------|
Gb|.|3-------(3)-5-3-2-|----------------|5-------(5)-2-3---|----------------|
Db| |------------------|0-------0-2-3-0-|----------------5-|0-----------0-0-|

E |------------------|----------------|-----------------|
B |------------------|----------------|-----------------|
Gb|3-------(3)-5-3-2-|----------------|5-------3---2----|
Db|------------------|0-------0-2-3-0-|-----------------|

   1st ending------------| 2nd ending-------------------|
E |---------------------|-------------------------------|
B |-----------------------------------------------------||continue to breakdown/solo
Gb|---------------------|-------------------------------|
Db|0---------------7\---|-------------------------------|

Breakdown/Solo (1:47)
E |---------------|----------------|----------------|----------------|
B |---------------|----------------|----------------|----------------|
Gb|---------------|----------------|7-------5-------|3--5--2---------|
Db|0----------0-0-|0-----------0-0-|----------------|---------5--3-5-|

E |----------------|----------------|----------------|----------------|
B |----------------|----------------|----------------|----------------|
Gb|----------------|------------2-3-|----------------|3--5--2---------|
Db|0-------0-------|0--2--3--5------|0-------0-------|---------5--3-5-|

(1:59)
E | |----------------|----------------|----------------|----------------| |
B |.|----------------|----------------|----------------|----------------|.|repeat once
Gb|.|----------------|------------2233|----------------|333555222-------|.|
Db| |0000000000000000|000222333555----|0000000000000000|---------5553355| |

E |-----------------|----------------|
B |-----------------|----------------|
Gb|22----33--22-7-5-|--------5-------|
Db|---33------------|0---------------|

Final Chorus (2:18)
                                         E |-------------------|
Play chorus 2 again with this 2nd ending:B |-------------------|
                                         Gb|-------------------|
                                         Db|0-------.12.\------|

E |-----------------|----------------|----------------|----------------|
B |-----------------|----------------|----------------|----------------|
Gb|3-3-3-3-3-3-3-3/-|7-7-7-7-7-7-7-7-|5-5-5-5-5-5-5-5-|----------------|
Db|-----------------|----------------|----------------|0-0-0-0-0-0-0-0-|

E |-----------------|----------------|
B |-----------------|----------------|
Gb|3-3-3-3-3-3-3-3/-|7-7-7-7-7-7-7-7-|
Db|-----------------|----------------|

E |----------------|---------------------|-----------------------------------|
B |----------------|---------------------|-----------------------------------|
Gb|5-5---5-3-3-2---|---------------------|-----------------|--------5--------|
Db|----------------|0-----------0-0-7\---|000---000-007\---|000--------------|

key:
/=slide up

\=slide down

| |
|.|= repeat sign
|.|
| |
            
Submit corrections

↑ Back to top | Tablatures and chords for acoustic guitar and electric guitar, ukulele, drums are parodies/interpretations of the original songs. You may use it for private study, scholarship, research or language learning purposes only