» » »

Alkaline Trio - 02 Weve Had Enough Tabs

Artists:  A B C D E F G H I J K L M N O P Q R S T U V W X Y Z # 

02 Weve Had Enough Tabs

(ver. 3) Click to play this song!
Alkaline Trio
 Rating:
4/5 (4 votes)

 02 Weve Had Enough lessons Tabs too difficult? Try these video lessons and learn fast
 
                intro:

-------------------------------------------------
-------------------------------------------------
-------------------------------------------------
--4-4-4-4-4-4-4-4-4-4-4-4-4-4-4-5-5--  x3
--4-4-4-4-4-4-4-4-4-4-4-4-4-4-4-5-5--    then play powerchordsdownthefingerboard   
--2-0-2-0-2-0-2-0-2-0-2-0-2-0-2-3-3--

verse: use these chordsin this order but you can figure the rhythem pretty easily yourself 

-----------------------------------
-----------------------------------
-----------------------------------
-4--4--7--7--9--11-9---------
-4--4--7--7--9--11-9---------
-2--0--5--0--7--9---7---------


chorus: use these

------------------------
------------------------
-------------7---------
---7---4--- 7--------
---7---4----5--------
---5---2--------------


bridge/solo part:use...

--------------------------
--------------------------
-9-----------------------
-9---7----9-------------
-7---7----9-------------
------5----7------------

end on
----
----
----
----
-5--
-5--
-3--
            
Submit corrections


        02 Weve Had Enough lessons Hard to play? Try these video lessons and learn fast 02 Weve Had Enough lessons
        
↑ Back to top | Tablatures and chords for acoustic guitar and electric guitar, ukulele, drums are parodies/interpretations of the original songs. You may use it for private study, scholarship, research or language learning purposes only