» » »

Alkaline Trio - 02 Weve Had Enough Tabs

Artists:  A B C D E F G H I J K L M N O P Q R S T U V W X Y Z # 

02 Weve Had Enough Tabs

(ver. 2) Click to play this song!
Alkaline Trio
 Rating:
4/5 (4 votes)

 02 Weve Had Enough lessons Tabs too difficult? Try these video lessons and learn fast
 
                alkaline trio - weve had enough




Intro
------------------------|
------------------------|
---------999999---------|
-444444-xxxxxxx---------|
-444444-777777----------|
-222222-----------------|
Riff 1
-------------------------|
-------------------------|
-------------------------|
-4-6-7-9-7-6-4-2---------|
-4-6-7-9-7-6-4-2---------|
-2-4-5-7-5-4-2-0---------|
verse
-------------------------|
-------------------------|
-------------------777---|
-44444-77777-999-777-----|
-44444-77777-999-555-----|
-22222-55555-777---------|

Chorus
--------------------------|
--------------------------|
--------------77777-------|
-77777-44444-77777--------|
-77777-44444-55555--------|
-55555-22222--------------|x4}
Bridge 1

-----------------------|
-----------------------|
-----------------------|
44444444444444444444---|
44444444444444444444---|
22222222222222222222---|

Bit before the outro

------------------------|
------------------------|
---7---9----------------|
-7-7-7-9----------------|
-7-5-7-7----------------|
-5---5------------------|

Bridge 2

-------------------------|
-------------------------|
-------------------------|
7777777777777777777777---|
7777777777777777777777---|
5555555555555555555555---|

Outro

----------------------------|
----------------------------|
-999-666-777-222------------|
-xxx-xxxx-xxx-222-----------|
-777-444-555-000------------|
----------------------------|

Songflow-

Intro(x3)
Riff 1
Verse(x2)
Intro
Riff 1
Verse(x2)
Chorus(x2)
Bridge 1
No Guitar
Chorus(x4)
Bit Before outro(x4)
Bridge 2
Outro(x2)
Riff 1
            
Submit corrections


        02 Weve Had Enough lessons Hard to play? Try these video lessons and learn fast 02 Weve Had Enough lessons
        
↑ Back to top | Tablatures and chords for acoustic guitar and electric guitar, ukulele, drums are parodies/interpretations of the original songs. You may use it for private study, scholarship, research or language learning purposes only