» » »

Alkaline Trio - 02 Weve Had Enough Tabs

Artists:  A B C D E F G H I J K L M N O P Q R S T U V W X Y Z # 

02 Weve Had Enough Tabs

(ver. 1) Click to play this song!
Alkaline Trio
 Rating:
4/5 (4 votes)

 02 Weve Had Enough lessons Tabs too difficult? Try these video lessons and learn fast
 
                PROPS GO TO: L I N D E N

It's an awesome song and not terribly difficult to play either:

Intro:
|---------------------------------------------------------------------------
|---------------------------------------------------------------------------
|-----------9-9-9-9-9-9-9-9------------6-6-6-6-6-6-6-6-6------------4-4-4-4-
|-4-2-4-2-4-x-x-x-x-x-x-x-x--4-2-4-2-4-x-x-x-x-x-x-x-x-x--4-2-4-2-4-x-x-x-x-
|-4-2-4-2-4-7-7-7-7-7-7-7-7--4-2-4-2-4-4-4-4-4-4-4-4-4-4--4-2-4-2-4-2-2-2-2-
|-2-0-2-0-2------------------2-0-2-0-2--------------------2-0-2-0-2---------

--------------------------
--------------------------
-4-4-4-4------------------
-x-x-x-x--4-2-7-6-9-7-6-2-
-2-2-2-2--4-2-7-6-9-7-6-2-
----------2-0-5-4-7-5-4-0-

Verse x2:
|------------------------------------------------------------------------------
|------------------------------------------------------------------------------
|------------------------------------------------------------------------------
|-4-4--4-4-4--4-4-4--4-4-2--4-4--4-4-4--4-4-4--4-4-2--7-7--7-7-7--7-7-7--7-7-6-
|-4-4--4-4-4--4-4-4--4-4-2--4-4--4-4-4--4-4-4--4-4-2--7-7--7-7-7--7-7-7--7-7-6-
|-2-2--2-2-2--2-2-2--2-2-0--2-2--2-2-2--2-2-2--2-2-0--5-5--5-5-5--5-5-5--5-5-4-

----------------------------
----------------------------
------------7-7-7-7-6-6-6-6-
-9-9--9-9-9-7-7-7-7-6-6-6-6-
-9-9--9-9-9-5-5-5-5-4-4-4-4-
-7-7--7-7-7-----------------

Break:
|--------------------------------------------
|--------------------------------------------
|-----------4-4-4-4-4-4-4-4------------------
|-4-2-4-2-4-x-x-x-x-x-x-x-x--4-2-7-6-9-7-6-2-
|-4-2-4-2-4-2-2-2-2-2-2-2-2--4-2-7-6-9-7-6-2-
|-2-0-2-0-2------------------2-0-5-4-7-5-4-0-

Verse x2:
|------------------------------------------------------------------------------
|------------------------------------------------------------------------------
|------------------------------------------------------------------------------
|-4-4--4-4-4--4-4-4--4-4-2--4-4--4-4-4--4-4-4--4-4-2--7-7--7-7-7--7-7-7--7-7-6-
|-4-4--4-4-4--4-4-4--4-4-2--4-4--4-4-4--4-4-4--4-4-2--7-7--7-7-7--7-7-7--7-7-6-
|-2-2--2-2-2--2-2-2--2-2-0--2-2--2-2-2--2-2-2--2-2-0--5-5--5-5-5--5-5-5--5-5-4-

----------------------------
----------------------------
------------7-7-7-7-6-6-6-6-
-9-9--9-9-9-7-7-7-7-6-6-6-6-
-9-9--9-9-9-5-5-5-5-4-4-4-4-
-7-7--7-7-7-----------------

Chorus:
|------------------------------------------------------------------------------
|------------------------------------------------------------------------------
|---------------------------------------------------7--------------------------
|----7----------------------------4-----------------7---------7----------------
|----7----------------------------4-----------------5---------7----------------
|----5----------------------------2---------------------------5----------------
 And son we've had enough, please turn that f**king radio off, ain't nothing on 

-----------------------------------
-----------------------------------
---------------------------------7-
-------------------4-------------7-
-------------------4-------------5-
-------------------2---------------
the airwave in the dispair we feel

Break 2:
|----------------------------------------------------------
|----------------------------------------------------------
|----------------------------------------------------------
|-4-4-2-2-4-4-2-2-4-4-2-2-4^--4-4-2-2-4-4-2-2-4-4-2-2-4^-4-
|----------------------------------------------------------
|----------------------------------------------------------

Verse (I think you palm mute this except for the last 2 chords, but if you dont then it's just bass and drums playing till the last two chords)
|---------------------------------------------------------------------------
|---------------------------------------------------------------------------
|---------------------------------------------------------------------------
|-4-------------------------------------------------------------------------
|-4-------------------------------------------------------------------------
|-2-------------------------------------------------------------------------
 In the shadows where the heads hang low, you hear voices as the wind blows, 

-------------------------------------------7-------------6-------------------
--7-----------------------9----------------7-------------6----4--------------
--7-----------------------9----------------5-------------4----4--------------
--5-----------------------7-----------------------------------2--------------
 asking "Can't you see?", reminding you to breathe, it's only time before it 

---------------------------------------------------7-------------------------
---------------------------------------------------7-------------------------
---------------------------------------------------5-------------------------
 catches up, to you and all your broken, look I've found a better way, to get 

---------------------
---------------------
--------------7---6--
-9------------x---x--
-9------------5---4--
-7-------------------
 even with my enemies

Chorus:
|------------------------------------------------------------------------------
|------------------------------------------------------------------------------
|---------------------------------------------------7--------------------------
|----7----------------------------4-----------------7---------7----------------
|----7----------------------------4-----------------5---------7----------------
|----5----------------------------2---------------------------5----------------
 And son we've had enough, please turn that f**king radio off, ain't nothing on 

-----------------------------------
-----------------------------------
---------------------------------7-
-------------------4-------------7-
-------------------4-------------5-
-------------------2---------------
the airwave in the dispair we feel

|------------------------------------------------------------------------------
|------------------------------------------------------------------------------
|---------------------------------------------------7--------------------------
|----7----------------------------4-----------------7---------7----------------
|----7----------------------------4-----------------5---------7----------------
|----5----------------------------2---------------------------5----------------
 But son we've had enough, put on another sound and turn it up, ain't nothing on 

-----------------------------------
-----------------------------------
---------------------------------7-
-------------------4-------------7-
-------------------4-------------5-
-------------------2---------------
the airwave in the hatred we feel

Bridge x2:
|-----------------------------------------------------------------------
|-----------------------------------------------------------------------
|-------7~----------9~----------7~----9-9-9-9-9-9-9-9-9-9-9-9-9-9-9-9-9-
|-7~----7~----7~----9~----7~----7~----9-9-9-9-9-9-9-9-9-9-9-9-9-9-9-9-9-
|-7~----5~----7~----7~----7~----5~----7-7-7-7-7-7-7-7-7-7-7-7-7-7-7-7-7-
|-5~----------5~----------5~--------------------------------------------

**The same bridge plays over the lyrics**

Outro:
|--------------------------------------------------------------------------------- \
|-10-10-10-10-10-10-10-10-10-10-10-10-10-10-10-10--------------------------------- |
|-9--9--9--9--9--9--9--9--9--9--9--9--9--9--9--9--9-9-9-9-9-9-9-9-6-6-6-6-7-7-7-7- |
|-7--7--7--7--7--7--7--7--7--7--7--7--7--7--7--7--x-x-x-x-x-x-x-x-x-x-x-x-x-x-x-x- |  x4
|-------------------------------------------------7-7-7-7-7-7-7-7-4-4-4-4-5-5-5-5- |
|--------------------------------------------------------------------------------- /

|--------------------------
|--------------------------
|--------------------------
|--------------------------
|--------------------------
|-22-44-55-44-77-55-44-0-2-




That's it.
            
Submit corrections


        02 Weve Had Enough lessons Hard to play? Try these video lessons and learn fast 02 Weve Had Enough lessons
        
↑ Back to top | Tablatures and chords for acoustic guitar and electric guitar, ukulele, drums are parodies/interpretations of the original songs. You may use it for private study, scholarship, research or language learning purposes only