» » »

Alkaline Trio - You're Dead Tabs

Artists:  A B C D E F G H I J K L M N O P Q R S T U V W X Y Z # 

You're Dead Tabs

(ver. 1) Click to play this song!
Alkaline Trio
 Rating:
4/5 (4 votes)

 You're Dead lessons Tabs too difficult? Try these video lessons and learn fast
 
                Tuning: Standard (EADGBE)

This tab is 99.9% correct if not send me the corrections.

Intro
E --------------------------------------------------------------------
B --------------------------------------------------------------------
G -11/13-13-13-13-13-13-13-13-13-13/11-11-11-11-11/13-13-13-13-13-----
D --x/-x--x--x--x--x--x--x--x--x--x/-x--x--x--x--x/-x--x--x--x--x--9-9
A --9/11-11-11-11-11-11-11-11-11-11/-9--9--9--9--9/-9--9--9--9--9--9-9
E -----------------------------------------------------------------7-7

E --------------------------------------------------------------------
B --------------------------------------------------------------------
G --------------------------------------------------------------------
D -9--7-7-7-----------------------------------------------------------
A -9--7-7-7-----------------------------------------------------------
E -7--5-5-5-----------------------------------------------------------

Verse part 1
E --------------------------------------------------------------------
B --------------------------------------------------------------------
G -11/13------11/13---------------------------------------------------
D --x/-x-------x/-x-----9-9-9--7-7-7----------------------------------
A --9/11-------9/11-----9-9-9--7-7-7----------------------------------
E ----------------------7-7-7--5-5-5----------------------------------

Verse Part 2
E --------------------------------------------------------------------
B --------------------------------------------------------------------
G -11/13-13-13-13-13-13-13-13-13-13/11-11-11-11-11/13-13-13-13-13-----
D --x/-x--x--x--x--x--x--x--x--x--x/-x--x--x--x--x/-x--x--x--x--x--9-9
A --9/11-11-11-11-11-11-11-11-11-11/-9--9--9--9--9/-9--9--9--9--9--9-9
E -----------------------------------------------------------------7-7

E --------------------------------------------------------------------
B --------------------------------------------------------------------
G --------------------------------------------------------------------
D -9--7-7-7-----------------------------------------------------------
A -9--7-7-7-----------------------------------------------------------
E -7--5-5-5-----------------------------------------------------------

E --------------------------------------------------------------------
B --------------------------------------------------------------------
G -11/13-13-13-13-13-13-13-13-13-13-13-13-----------------------------
D --x/-x--x--x--x--x--x--x--x--x--x--x--x-----------------------------
A --9/11-11-11-11-11-11-11-11-11-11-11-11-----------------------------
E --------------------------------------------------------------------
                                       
Pre Chourus
E --------------------------------------------------------------------
B --------------------------------------------------------------------
G --------------------------------------------------------------------
D -7-7-7-7-7-7-7-7--9-9-9-9-9-9-9-9-----------------------------------
A -7-7-7-7-7-7-7-7--9-9-9-9-9-9-9-9-----------------------------------
E -5-5-5-5-5-5-5-5--7-7-7-7-7-7-7-7-----------------------------------
P.M...............  ...............

Interlude
E --------------------------------------------------------------------
B --------------------------------------------------------------------
G -9/11-11-11--12-12--12-12-12-12-12-12-12-12--9/11-11-11--12-12------
D -x/-x--x--x---x--x--12-12-12-12-12-12-12-12--x/-x--x--x---x--x--9-9-
A -7/-9--9--9--10-10--10-10-10-10-10-10-10-10--7/-9--9--9--10-10--9-9-
E ----------------------------------------------------------------7-7-

E --------------------------------------------------------------------
B --------------------------------------------------------------------
G --------------------------------------------------------------------
D -9-9-9-9-9-9--------------------------------------------------------
A -9-9-9-9-9-9--------------------------------------------------------
E -7-7-7-7-7-7--------------------------------------------------------

Chourus
E --------------------------------------------------------------------
B --------------------------------------------------------------------
G -9/11-11-11--12-12-------------------9/11-11-11--12-12--12-12-12-12-
D -x/-x--x--x---x--x--9-9-9-9-9-9-9-9--x/-x--x--x---x--x--12-12-12-12-
A -7/-9--9--9--10-10--9-9-9-9-9-9-9-9--7/-9--9--9--10-10--10-10-10-10-
E --------------------7-7-7-7-7-7-7-7---------------------------------

E --------------------------------------------------------------------
B --------------------------------------------------------------------
G -12-12-12-12--------------------------------------------------------
D -12-12-12-12--------------------------------------------------------
A -10-10-10-10--------------------------------------------------------
E --------------------------------------------------------------------

E --------------------------------------------------------------------
B --------------------------------------------------------------------
G -9/11-11-11--12-12-------------------9-9-9-9-9-9-9-9/8/9-9-9-9-9-9-9
D -x/-x--x--x---x--x--9-9-9-9-9-9-9-9--x-x-x-x-x-x-x-x/x/x-x-x-x-x-x-x
A -7/-9--9--9--10-10--9-9-9-9-9-9-9-9--7-7-7-7-7-7-7-7/6/7-7-7-7-7-7-7
E --------------------7-7-7-7-7-7-7-7---------------------------------

Riff A
E --------------------------------------------------------------------
B --------------------------------------------------------------------
G -6-6-6-6-6-6-6-6-6-6-6-6-6-6-6-6------------------------------------
D -6-6-6-6-6-6-6-6-6-6-6-6-6-6-6-6--6-6-6-6-6-6-6-6--7-7-7-7-7-7-7-7--
A -4-4-4-4-4-4-4-4-4-4-4-4-4-4-4-4--6-6-6-6-6-6-6-6--7-7-7-7-7-7-7-7--
E ----------------------------------4-4-4-4-4-4-4-4--5-5-5-5-5-5-5-5--
P.M...............................  ...............  ...............

End On
E -0-----------
B -0-----------
G -9-----------
D -9-----------
A -7-----------
E -0-----------

Intro x2
Verse Part 1 x2
Verse Part 2 x1
Pre Chourus x1
Verse part 1 x2
Verse part 2 x1
pre chourus x1
Chourus x1
Intro x2
PAUSE (No Guitar just base and drums)
Pre Chourus
Chourus x2
Riff A x4
Chourus x2
End x1
            
Submit corrections


        You're Dead lessons Hard to play? Try these video lessons and learn fast You're Dead lessons
        
↑ Back to top | Tablatures and chords for acoustic guitar and electric guitar, ukulele, drums are parodies/interpretations of the original songs. You may use it for private study, scholarship, research or language learning purposes only