Home » A » Alice In Chains »

Alice In Chains - Voices Tabs

Artists:  A B C D E F G H I J K L M N O P Q R S T U V W X Y Z # 

Voices Tabs

(ver. 1) Click to play this song!
Alice In Chains
 Rating:
4.3/5 (21 vote)
                [Intro]
A#|---0--0---0--0--0--0--0-|-0--0-0--0-0-0-0-0-------|
F |--12-13h-13-13-13-12-10-|12-10-8-10-5-5-5-8-------|
C#|------------------------|-------------7-----------|
G#|------------------------|-------------------------|
D#|------------------------|-------------------------|
A#|------------------------|-------------------------|

A#|---0--0---0--0--0--0--0-|--0--0-0--0--0--0--0--0---|
F |--12-13h-13-13-13-12-10-|-12-10-8-10-17-15-17-15---|
C#|------------------------|--------------------------|
G#|------------------------|--------------------------|
D#|------------------------|--------------------------|
A#|------------------------|--------------------------|



[Verse]
A#|--3-2----------------------------------|
F |--3-3--2---0---0-0-0-0-0-0-------------|
C#|--0-2--2-0-1---1-1-1-1-1-1-0-----------|
G#|--0-0--2-0-2---2-2-0-0-2-2-0----(x8)---|
D#|-------0---2---2-2-2-2-2-2-------------|
A#|---------------------------------------|



[Chorus]
A#|--3---3---3-3-----2---2---2-2--|--------------------------------------------|
F |--3---3---3-3-----3---3---3-3--|---2---2---2-2-----0---0---0-0--------------|
C#|--0---0---0-0---0-2---2---2-2--|-0-2---2---2-2---0-1---1---1-1--0-----------|
G#|--0---0---0-0---0-0---0---0-0--|-0-2---2---2-2---0-2---2---2-2--0----(x2)---|
D#|--2---2---2-2------------------|---0---0---0-0-----2---2---2-2--------------|
A#|--3---3---3-3------------------|-------------------0---0---0-0--------------|



[Bridge]
A#|-----14-------12-----------------------------|-----14-------12-----------------------------------|
F |-----------------------12-----------15-------|------------------------12-------------------------|
C#|------------------------------12-------12----|-------------------------------12-----14-12--------|
G#|--14----14-14----14-14-----14----14-------14-|-14-----14-14-----14-14-----14-----14-------14-----|
D#|---------------------------------------------|---------------------------------------------------|
A#|---------------------------------------------|---------------------------------------------------|

A#|-----------------------------------------------|
F |---------8----5--------7-8-8b-8br--------------|
C#|--7-7-9--7-x--4----5/7------------7-7/9--------|
G#|--7-7-9--5-x--2--------------------------------|
D#|---------5-x--2--------------------------------|
A#|-----------------------------------------------|



[Verse]
A#|--3-2----------------------------------|
F |--3-3--3---0---0-0-0-0-0-0-------------|
C#|--0-2--3-0-1---1-1-1-1-1-1-0-----------|
G#|--0-0--3-0-2---2-2-0-0-2-2-0----(x4)---|
D#|-------0---2---2-2-2-2-2-2-------------|
A#|---------------------------------------|



[Chorus]
A#|--3---3---3-3-----2---2---2-2--|--------------------------------------------|
F |--3---3---3-3-----3---3---3-3--|---2---2---2-2-----0---0---0-0--------------|
C#|--0---0---0-0---0-2---2---2-2--|-0-2---2---2-2---0-1---1---1-1--0-----------|
G#|--0---0---0-0---0-0---0---0-0--|-0-2---2---2-2---0-2---2---2-2--0----(x4)---|
D#|--2---2---2-2------------------|---0---0---0-0-----2---2---2-2--------------|
A#|--3---3---3-3------------------|-------------------0---0---0-0--------------|



[Interlude]
A#|------------------------0--0--0-0--2--2--2-2-|------------------------0--0--0-0--2--2--2-2---|
F |--1--1--1-1--2--2--2-2--0--0--0-0--3--3--3-3-|--1--1--1-1--2--2--2-2--0--0--0-0--3--3--3-3---|
C#|--0--0--0-0--2--2--2-2--1--1--1-1--2--2--2-2-|--0--0--0-0--2--2--2-2--1--1--1-1--2--2--2-2---|
G#|--2--2--2-2--2--2--2-2--2--2--2-2--0--0--0-0-|--2--2--2-2--2--2--2-2--2--2--2-2--0--0--0-0---|
D#|--3--3--3-3--0--0--0-0--2--2--2-2------------|--3--3--3-3--0--0--0-0--2--2--2-2--------------|
A#|------------------------0--0--0-0------------|------------------------0--0--0-0--------------|

A#|------------------------0--0--0-0--2--2--2-2-|--------------------3-2--------------------------|
F |--1--1--1-1--2--2--2-2--0--0--0-0--3--3--3-3-|--1--1--1-1--2--2---3-3--3---0---0-0-0-0-0-0-----|
C#|--0--0--0-0--2--2--2-2--1--1--1-1--2--2--2-2-|--0--0--0-0--2--2---0-2--3-0-1---1-1-1-1-1-1-0---|
G#|--2--2--2-2--2--2--2-2--2--2--2-2--0--0--0-0-|--2--2--2-2--2--2---0-0--3-0-2---2-2-0-0-2-2-0---|
D#|--3--3--3-3--0--0--0-0--2--2--2-2------------|--3--3--3-3--0--0--------0---2---2-2-2-2-2-2-----|
A#|------------------------0--0--0-0------------|-------------------------------------------------|

A#|--3-2-----------------------------14-------12----------------------------|-----------------------------|
F |--3-3--3---0---0-0-0-0-0-0--------------------------12----------15-------|--------------------12-------|
C#|--0-2--3-0-1---1-1-1-1-1-1-0------------------------------12-------12----|-12-14-12----14--14----------|
G#|--0-0--3-0-2---2-2-0-0-2-2-0---14----14-14----14-14----14----14-------14-|----------14-----------14v---|
D#|-------0---2---2-2-2-2-2-2-----------------------------------------------|-----------------------------|
A#|-------------------------------------------------------------------------|-----------------------------|



[Verse]
A#|--3-2----------------------------------|
F |--3-3--3---0---0-0-0-0-0-0-------------|
C#|--0-2--3-0-1---1-1-1-1-1-1-0-----------|
G#|--0-0--3-0-2---2-2-0-0-2-2-0----(x4)---|
D#|-------0---2---2-2-2-2-2-2-------------|
A#|---------------------------------------|

[Riff during above Verse]
A#|-----------------------------------------|
F |--------------------------5--3pv---------|
C#|-----------------2brbrbr----------(x2)---|
G#|-----------------------------------------|
D#|-----------------------------------------|
A#|-----------------------------------------|



[Chorus]
A#|--3---3---3-3-----2---2---2-2-|---------------------------------------------|
F |--3---3---3-3-----3---3---3-3-|----2---2---2-2-----0---0---0-0--------------|
C#|--0---0---0-0---0-2---2---2-2-|--0-2---2---2-2---0-1---1---1-1--0-----------|
G#|--0---0---0-0---0-0---0---0-0-|--0-2---2---2-2---0-2---2---2-2--0----(x4)---|
D#|--2---2---2-2-----------------|----0---0---0-0-----2---2---2-2--------------|
A#|--3---3---3-3-----------------|--------------------0---0---0-0--------------|



[Interlude]
A#|------------------------0--0--0-0--2--2--2-2-|------------------------0--0--0-0--2--2--2-2---|
F |--1--1--1-1--2--2--2-2--0--0--0-0--3--3--3-3-|--1--1--1-1--2--2--2-2--0--0--0-0--3--3--3-3---|
C#|--0--0--0-0--2--2--2-2--1--1--1-1--2--2--2-2-|--0--0--0-0--2--2--2-2--1--1--1-1--2--2--2-2---|
G#|--2--2--2-2--2--2--2-2--2--2--2-2--0--0--0-0-|--2--2--2-2--2--2--2-2--2--2--2-2--0--0--0-0---|
D#|--3--3--3-3--0--0--0-0--2--2--2-2------------|--3--3--3-3--0--0--0-0--2--2--2-2--------------|
A#|------------------------0--0--0-0------------|------------------------0--0--0-0--------------|

A#|------------------------0--0--0-0--2--2--2-2-|--------------------3-2--------------------------|
F |--1--1--1-1--2--2--2-2--0--0--0-0--3--3--3-3-|--1--1--1-1--2--2---3-3--3---0---0-0-0-0-0-0-----|
C#|--0--0--0-0--2--2--2-2--1--1--1-1--2--2--2-2-|--0--0--0-0--2--2---0-2--3-0-1---1-1-1-1-1-1-0---|
G#|--2--2--2-2--2--2--2-2--2--2--2-2--0--0--0-0-|--2--2--2-2--2--2---0-0--3-0-2---2-2-0-0-2-2-0---|
D#|--3--3--3-3--0--0--0-0--2--2--2-2------------|--3--3--3-3--0--0--------0---2---2-2-2-2-2-2-----|
A#|------------------------0--0--0-0------------|-------------------------------------------------|
 
A#|--3-2-----------------------------14-12-----12-12-----------------------|--------------------------|
F |--3-3--3---0---0-0-0-0-0-0------------------------12-----------15-------|--------------8---9-------|
C#|--0-2--3-0-1---1-1-1-1-1-1-0-----------------------------12-------12----|----14-12-----7-x-9-------|
G#|--0-0--3-0-2---2-2-0-0-2-2-0---14-------14------------14----14-------14-|-14-------14--5-x-9-------|
D#|-------0---2---2-2-2-2-2-2----------------------------------------------|--------------5-x-7-------|
A#|------------------------------------------------------------------------|------------------7-------|



[Outro]
A#|---0--0---0--0--0--0--0-|--0--0-0--0-0-0-0-0-------|
F |--12-13h-13-13-13-12-10-|-12-10-8-10-5-5-5-8-------|
C#|------------------------|--------------7-----------|
G#|------------------------|--------------------------|
D#|------------------------|--------------------------|
A#|------------------------|--------------------------|

A#|---0--0---0--0--0--0--0-|--0--0-0--0--0--0--0--0---|
F |--12-13h-13-13-13-12-10-|-12-10-8-10-17-15-17-15---|
C#|------------------------|--------------------------|
G#|------------------------|--------------------------|
D#|------------------------|--------------------------|
A#|------------------------|--------------------------|

            
Submit corrections

↑ Back to top | Tablatures and chords for acoustic guitar and electric guitar, ukulele, drums are parodies/interpretations of the original songs. You may use it for private study, scholarship, research or language learning purposes only