Home » A » Alice In Chains »

Alice In Chains - Junkhead Tabs

Artists:  A B C D E F G H I J K L M N O P Q R S T U V W X Y Z # 

Junkhead Tabs

(ver. 1) Click to play this song!
Alice In Chains
 Rating:
4/5 (4 votes)
                Hey Alice in Chains fans!!!  This is my first time trying to transcribe a song 
so if there are any mistakes please let me know, ok??  E-mail me at: 
know that all the rewinding of my Dirt tape wasn't in vain.  Have fun with it!!


Junkhead by Alice in Chains

Intro

------5--4-----4-----------------------------------------------------G
------5--4-----4--5----4--3----3--5--------------------------------D
------3--2-----2--5----4--3----3--5--------------------------------A
-------------------3----2--1----1--3--------------------------------E
                Repeat 4x


Verse

------3--2-----2-----------------------------------------------------A
-------------------3----2--1----1--3---------------------------------E
                Repeat 4x   (palm mute slightly)

Chorus
(F#,B,A,G)

F#/B/A
Yeahhhh..............
 G                           F#/B/A
What's my drug of choice,
G                       F#/B/A
Well what have you got?
G               F#/B/A
I don't go broke,
G               F#/B/A
And I do it alive!


Verse
------5--4-----4-----------------------------------------------------G
------5--4-----4--5----4--3----3--5--------------------------------D
------3--2-----2--5----4--3----3--5--------------------------------A
-------------------3----2--1----1--3--------------------------------E

The verse goes back to these chords 4x and then to the root notes for the 
chords 4x.


Solo

-----------8-11---11-11-13-11----11-11-13-9----9-8-6-4---------G
-6---6-6-------------------------------------------------------7-5---D
                Repeat 4x

Please let me know if there are any mistakes =)

Later,
Chris
            
Submit corrections

↑ Back to top | Tablatures and chords for acoustic guitar and electric guitar, ukulele, drums are parodies/interpretations of the original songs. You may use it for private study, scholarship, research or language learning purposes only