Home » A » Alice In Chains »

Alice In Chains - Voices Bass

Artists:  A B C D E F G H I J K L M N O P Q R S T U V W X Y Z # 

Voices Bass

(ver. 1) Click to play this song!
Alice In Chains
 Rating:
4.3/5 (6 votes)
                00:40
Gb|-----------------------------------------------------| 3x
Db|-----------------------------------------------------|
Ab|-5-0-------------------------------------------------|
Eb|-----0-5-7--7-7-5-5-7-7-5----------------------------|

Gb|-----------------------------------------------------| 1x
Db|-----------------------------------------------------|
Ab|-5-0-7-----------------------------------------------|
Eb|-------5-7--7-7-5-5-7-7-5----------------------------|


00:58
Gb|-------------------------------------------------------------------------------| 1x
Db|-------------------------------------------------------------------------------|
Ab|-5-5-5-5-5-7-----4-4-5-7-7-7-7-9-----------5-5-5-5-7-----------7-7-7-9---------|
Eb|-------------5-5-----------------7-7-7-7-9-----------5-5-0-3-0---------7-7-7-7-|


01:16
Gb|-----------------------------------------------------| 4x
Db|-----------------------------------------------------|
Ab|-5-0-------------------------------------------------|
Eb|-----0-5-7--7-7-5-5-7-7-5----------------------------|


01:34
Gb|-----------------------------------------------------| 2x
Db|-------0-9-------------------------------------------|
Ab|-5-0-7-------------------5-0-------------------------|
Eb|-----------7-7-5-5-7-7-5-----0-5-7--7-7-5-5-7-7-5----|


01:53
Gb|-------------------------------------------------------------------------------| 2x
Db|-------------------------------------------------------------------------------|
Ab|-5-5-5-5-5-7-----4-4-5-7-7-7-7-9-----------5-5-5-5-7-----------7-7-7-9---------|
Eb|-------------5-5-----------------7-7-7-7-9-----------5-5-0-3-0---------7-7-7-7-|


02:29
Gb|-----------------------------------------------------|
Db|-----------------------------------9-7-7-----7-------|
Ab|---------------------------6-6-6-9-------7-7---7-----|
Eb|-3-3-3-3-3-2-0-0-0-0-0-7-7---------------------------|

Gb|-----------------------------------------------------|
Db|-----------------------------------7h9p7-------------|
Ab|-------------------7-5-----9-9-----------7-----------|
Eb|-3-3-3-3-3-2-0-0-0-----7-7-----7-5---------5---------|

Gb|-----------------------------------------------------|
Db|-----------------------------------9-7-7-----7-------|
Ab|---------------------------6-6-6-9-------7-7---7-----|
Eb|-3-3-5-5-5-2-0-0-0-0-0-7-7---------------------------|

Gb|-----------------------------------------------------|
Db|-----------------------------------------------------|
Ab|-----------------------------------------------------|
Eb|-3-3-3-3-3-2-0---------------------------------------|


03:01
Gb|-----------------------------------------------------| 3x
Db|-----------------------------------------------------|
Ab|-5-0-------------------------------------------------|
Eb|-----0-5-7--7-7-5-5-7-7-5----------------------------|

Gb|-----------------------------------------------------| 1x
Db|-----------------------------------------------------|
Ab|-5-0-7-----------------------------------------------|
Eb|-------5-7--7-7-5-5-7-7-5----------------------------|


03:18
Gb|-----------------------------------------------------| 2x
Db|-------0-9-------------------------------------------|
Ab|-5-0-7-------------------5-0-------------------------|
Eb|-----------7-7-5-5-7-7-5-----0-5-7--7-7-5-5-7-7-5----|


03:57
Gb|-------------------------------------------------------------------------------| 2x
Db|-------------------------------------------------------------------------------|
Ab|-5-5-5-5-5-7-----4-4-5-7-7-7-7-9-----------5-5-5-5-7-----------7-7-7-9---------|
Eb|-------------5-5-----------------7-7-7-7-9-----------5-5-0-3-0---------7-7-7-7-|


04:13
Gb|-----------------------------------------------------|
Db|-----------------------------------9-7-7-----7-------|
Ab|---------------------------6-6-6-9-------7-7---7-----|
Eb|-3-3-3-3-3-2-0-0-0-0-0-7-7---------------------------|

Gb|-----------------------------------------------------|
Db|-----------------------------------7h9p7-------------|
Ab|-------------------7-5-----9-9-----------7-----------|
Eb|-3-3-3-3-3-2-0-0-0-----7-7-----7-5---------5---------|

Gb|-----------------------------------------------------|
Db|-----------------------------------9-7-7-----7-------|
Ab|---------------------------6-6-6-9-------7-7---7-----|
Eb|-3-3-5-5-5-2-0-0-0-0-0-7-7---------------------------|

Gb|-----------------------------------------------------|
Db|-----------------------------------------------------|
Ab|-----------------------------------------------------|
Eb|-3-3-3-3-3-2-0-0-0-0-0-------------------------------|


04:45
Gb|-----------------------------------------------------| 1x
Db|-----------------------------------------------------|
Ab|-5-0-------------------------------------------------|
Eb|-----0-5-7--7-7-5-5-7-7-5----------------------------|

Gb|-----------------------------------------------------|
Db|-------0-9-------------------------------------------|
Ab|-5-0-7-------------------5-0-------------------------|
Eb|-----------7-7-5-5-7-7-5-----0-5-7--7-7-5-5-7-7-5----|

Gb|-----------------------------------------------------|
Db|-7-5-------------------------------------------------|
Ab|-----7-5---------------------------------------------|
Eb|---------5-7-----------------------------------------|            
Submit corrections

↑ Back to top | Tablatures and chords for acoustic guitar and electric guitar, ukulele, drums are parodies/interpretations of the original songs. You may use it for private study, scholarship, research or language learning purposes only