» » »

Against The Current - Wasteland Chords

Artists:  A B C D E F G H I J K L M N O P Q R S T U V W X Y Z # 

Wasteland Chords

(ver. 1) Click to play this song!
Against The Current
 Rating:
4.4/5 (8 votes)


 Wasteland  lessons Tabs too difficult? Try these video lessons and learn fast
 
                [Intro]

e|--------------------------|---------------------------|-----------------------------|
B|--------------------------|-------7----7h8---8p7----7-|-----------------------------|
G|-7--------5--4h5----------|---------------------------|----7--------5--4h5---5-4----|
D|----5------------5-----5--|----9-----9-----9------9---|-------5------------5-----5--|
A|-------3------------3-----|-7-------------------------|-3--------3------------------|
E|--------------------------|---------------------------|-----------------------------|

e|-----------------------7------|
B|-------7-----7h8-----8-----8--|
G|------------------------------|
D|----9-----9-------9-------9---|
A|-7----------------------------|
E|------------------------------|


[Verse]

 C              Em            G              Em
Have I lost my mind? Is this paradise? Or a darker side?
 C           Em                G                   Em
Candy coated lips, You're the sweetest kiss, But a bad trip


[Pre-Chorus]
             
C               Em                  D
 Changing faces, know the name but I just can't place it
C                 Em                D
 Slurring phrases, took a step but I can't retrace it
C                        D
 You tell me "take this", but I don't wanna wake up in your...


[Chorus]

Em C G      D
Waa--steland
      Em C    G              D
Your waa--steland (I don't wanna wake up in your)
Em C G      D
Waa--steland 
     Em C     G                 D 
Your waa--steland (No, I don't wanna wake up in your)


[Verse]

  C          Em          G                  Em
Twisted fantasy, In your ecstasy, You're no good for me
 C               Em               G                    Em
Just behind the wall, It's not a dream at all, It's a free fall 


[Pre-Chorus]

C               Em                  D
 Changing faces, know the name but I just can't place it
C                 Em                D
 Slurring phrases, took a step but I can't retrace it
C                        D
 You tell me "take this", but I don't wanna wake up in your...


[Chorus]

Em C G      D
Waa--steland
      Em C    G              D
Your waa--steland (I don't wanna wake up in your)
Em C G      D
Waa--steland 
     Em C     G                 D 
Your waa--steland (No, I don't wanna wake up in your)


[Solo]

e|---------------------------|---------------------------|-------------------------|
B|---------------------------|-------7----7h8---8p7----7-|-------------------------|
G|-7--------5--4h5-----------|---------------------------|----7--------5--4--------|
D|----5------------5------5--|----9-----9-----9------9---|-------5-----------5--7--|
A|-------3------------2s3----|-7-------------------------|-3--------3--------------|
E|---------------------------|---------------------------|-------------------------|

e|-------------------7-----|
B|-------7-----8-----------|
G|-------------------------|
D|----9-----9-----9--------|
A|-7-----------------------|
E|-------------------------|

e|---------------------------|---------------------------|-------------------------|
B|---------------------------|-------7----7h8---8p7----7-|-------------------------|
G|-7--------5--4h5-----------|---------------------------|----7--------5--4--------|
D|----5------------5------5--|----9-----9-----9------9---|-------5-----------5--7--|
A|-------3------------2s3----|-7-------------------------|-3--------3--------------|
E|---------------------------|---------------------------|-------------------------|

e|-----------------------7--7-7-|
B|-------7-----7h8-----8--------|
G|------------------------------|
D|----9-----9-------9-----------|
A|-7----------------------------|
E|------------------------------|


[Bridge]
        
C             Em 
Changing faces
C              Em   D 
Slurring phrases 
C             Em 
Nothing changes
C           Em    N.C.
In your waste- I don't wanna wake up in your...


[Chorus] 
        
Em C G      D
Waa--steland
      Em C    G              D
Your waa--steland (I don't wanna wake up in your)
Em C G      D
Waa--steland 
     Em C     G                 D 
Your waa--steland (No, I don't wanna wake up in your wasteland)
C              Em  D
Changing faces    (In your wasteland)
C               Em  D
Slurring phrases    (No I don't wanna wake up in your)
C              Em  D
Nothing changes  
C           Em
In your waste-
N.C.
I don't wanna wake up            
Submit corrections



        Wasteland  lessons Hard to play? Try these video lessons and learn fast Wasteland  lessons
        
↑ Back to top | Tablatures and chords for acoustic guitar and electric guitar, ukulele, drums are parodies/interpretations of the original songs. You may use it for private study, scholarship, research or language learning purposes only