» » »

Against The Current - Paralyzed Bass

Artists:  A B C D E F G H I J K L M N O P Q R S T U V W X Y Z # 

Paralyzed Bass

(ver. 1) Click to play this song!
Against The Current
 Rating:
2.8/5 (30 votes)


 Paralyzed  lessons Tabs too difficult? Try these video lessons and learn fast
 
                Into

G|---------------------------------------------------------------------|
D|---------------------------------------------------------------------|
A|-7-7-7-7-7-7-7-7-3-3-3-3-3-3-5-5-5-----------------------------------|
E|---------------------------------------------------------------------|
Verse
G|---------------------------------------------------------------------------|
D|---------------------------------------------------------------------------|
A|-7-7-7-7-7-7-7-7-3-3-3-3-3-3-3-3-------------------------------------------|x4
E|---------------------------------3-3-3-3-3-3-3-3-3-3-3-3-2-2-2-2-----------|
Chorus 
G|---------------------------------------------------------------------------|
D|-----------------------------------5-5-5-5-5-5-5-5-0-0-0-0-0-0-0-0---------|x2
A|-7-7-7-7-7-7-7-7--3-3-3-3-3-3-3-3------------------------------------------|
E|---------------------------------------------------------------------------|

G|---------------------------------------------------------------------------|
D|---------------------------------------------------------------------------|
A|-0-0-0-0-0-0-0-0-2-2-2-2-2-2-2-2-3-3-3-3-3-3-3-3-5-5-----------------------|
E|---------------------------------------------------------------------------|
Repeat throughout the song             
Submit corrections



        Paralyzed  lessons Hard to play? Try these video lessons and learn fast Paralyzed  lessons
        
↑ Back to top | Tablatures and chords for acoustic guitar and electric guitar, ukulele, drums are parodies/interpretations of the original songs. You may use it for private study, scholarship, research or language learning purposes only