» » »

Against The Current - Fireproof Tabs

Artists:  A B C D E F G H I J K L M N O P Q R S T U V W X Y Z # 

Fireproof Tabs

(ver. 1) Click to play this song!
Against The Current
 Rating:
4/5 (4 votes)


 Fireproof  lessons Tabs too difficult? Try these video lessons and learn fast
 
                Tuning: Standard (EADGBe)

e|---------------------------------------------------------------------------|
B|--/12--10------10------10---------/12--10------10--------------------------|
G|-----------12------12------9---------------12------12--9-------------------|
D|---------------------------------------------------------12-10-------------|
A|---------------------------------------------------------------------------|
E|---------------------------------------------------------------------------|

e|---------------------------------------------------------------------------|
B|--/12--10------10------10----------10------10------10----13----------------|
G|-----------12------12-----------12----12-9----12-9----12-------------------|
D|---------------------------------------------------------------------------|
A|---------------------------------------------------------------------------|
E|---------------------------------------------------------------------------|
            
Submit corrections



        Fireproof  lessons Hard to play? Try these video lessons and learn fast Fireproof  lessons
        
↑ Back to top | Tablatures and chords for acoustic guitar and electric guitar, ukulele, drums are parodies/interpretations of the original songs. You may use it for private study, scholarship, research or language learning purposes only