» » »

Against The Current - Wasteland Tabs

Artists:  A B C D E F G H I J K L M N O P Q R S T U V W X Y Z # 

Wasteland Tabs

(ver. 1) Click to play this song!
Against The Current
 Rating:
4.3/5 (26 votes)


 Wasteland  lessons Tabs too difficult? Try these video lessons and learn fast
 
                [Intro]

e|--------------------------|------------------------------------------------|
B|-5------------------------|--------9----9-10----10-9----9------------------|
G|--------7---6h7-----------|------------------------------------------------| x2
D|---7------------7---7-----|-----11----11-----11------11--------------------| 
A|------5-----------5-------|--9---------------------------------------------|
E|--------------------------|------------------------------------------------|

[Verse]

e|--------------------------|------------------------------------------------|
B|-5------------------------|--------9----9-10----10-9----9------------------|
G|--------7---6h7-----------|------------------------------------------------|
D|---7------------7---7-----|-----11----11-----11------11--------------------| 
A|------5-----------5-------|--9---------------------------------------------|
E|--------------------------|------------------------------------------------|

e|--------------------------|--------------------------9---------------------|
B|-5------------------------|--------9----9-10-----10-----10-----------------|
G|--------7---6h7-----------|------------------------------------------------|
D|---7------------7---9-----|-----11----11-----------------------------------| 
A|------5-------------------|--9----------------9----------------------------|
E|--------------------------|------------------------------------------------|


[Chorus]


e|---11-9--9-7----7-9-9-7-9-9--11--6-7-|-11-9--9-7----7-9-9-7-9-9--11-6-7----|
B|-------------------------------------|-------------------------------------|
G|-------------------------------------|-------------------------------------|
D|-------------------------------------|-------------------------------------|
A|-------------------------------------|-------------------------------------|
E|-------------------------------------|-------------------------------------|

e|--11-9--9-7----7-9-7-9-7-9-11-6-7---10-9---14-------6-7---10-9---14--------|
B|----------------------------------------------12---------------------12----|
G|---------------------------------------------------------------------------|
D|---------------------------------------------------------------------------|
A|---------------------------------------------------------------------------|
E|---------------------------------------------------------------------------|

e|---------------------------------------------------------------------------|
B|--12-14-12-14-12-14--15-11-12--15-14--17-----11-12---15-14---17------------|
G|-----------------------------------------16----------------------16--------|
D|---------------------------------------------------------------------------|
A|---------------------------------------------------------------------------|
E|---------------------------------------------------------------------------|

e|--------------------------------|
B|-12-14-12-14-12-14-15-11-12-----|
G|--------------------------------|
D|--------------------------------|
A|--------------------------------|
E|--------------------------------|


[Bridge]

e|--------------------------|------------------------------------------------|
B|-5------------------------|--------9----9-10----10-9----9------------------|
G|--------7---6h7-----------|------------------------------------------------|
D|---7------------7---7-----|-----11----11-----11------11--------------------| 
A|------5-----------5-------|--9---------------------------------------------|
E|--------------------------|------------------------------------------------|

e|--------------------------|--------------------------9---------------------|
B|-5------------------------|--------9----9-10-----10-----10-----------------|
G|--------7---6h7-----------|------------------------------------------------|
D|---7------------7---9-----|-----11----11-----------------------------------| 
A|------5-------------------|--9----------------9----------------------------|
E|--------------------------|------------------------------------------------|

[Chorus]

e|---11-9--9-7----7-9-9-7-9-9--11--6-7-|-11-9--9-7----7-9-9-7-9-9--11-6-7----|
B|-------------------------------------|-------------------------------------|
G|-------------------------------------|-------------------------------------|
D|-------------------------------------|-------------------------------------|
A|-------------------------------------|-------------------------------------|
E|-------------------------------------|-------------------------------------|

e|--11-9--9-7----7-9-7-9-7-9-11-6-7---10-9---14-------6-7---10-9---14--------|
B|----------------------------------------------12---------------------12----|
G|---------------------------------------------------------------------------|
D|---------------------------------------------------------------------------|
A|---------------------------------------------------------------------------|
E|---------------------------------------------------------------------------|

e|---------------------------------------------------------------------------|
B|--12-14-12-14-12-14--15-11-12--15-14--17-----11-12---15-14---17------------|
G|-----------------------------------------16----------------------16--------|
D|---------------------------------------------------------------------------|
A|---------------------------------------------------------------------------|
E|---------------------------------------------------------------------------|

e|--------------------------------|--11-9--9-7---11-9--9-7---11-9--9-7-------|
B|-12-14-12-14-12-14-15-11-12-----|------------------------------------------|
G|--------------------------------|------------------------------------------|
D|--------------------------------|------------------------------------------|
A|--------------------------------|------------------------------------------|
E|--------------------------------|------------------------------------------|

e|-9-7-10-|---7-9-7-9-7-9-11-6-7---10-9---14-------6-7---10-9---14------------|
B|--------|----------------------------------12---------------------12--------|
G|--------|-------------------------------------------------------------------|
D|--------|-------------------------------------------------------------------|
A|--------|-------------------------------------------------------------------|
E|--------|-------------------------------------------------------------------|

e|---------------------------------------------------------------------------|
B|--12-14-12-14-12-14--15-11-12--15-14--17-----11-12---15-14---17------------|
G|-----------------------------------------16----------------------16--------|
D|---------------------------------------------------------------------------|
A|---------------------------------------------------------------------------|
E|---------------------------------------------------------------------------|

e|--------------------------------|
B|-12-14-12-14-12-14-15-11-12-----|
G|--------------------------------|
D|--------------------------------|
A|--------------------------------|
E|--------------------------------|

[Outro]

e|--11-9--9-7--|--9--7--10-|--11-9--9-7-|--7-9-7-9-7-9-11-6-7--|-11-9--9-7--|-9-7-10--|
B|-------------|-----------|------------|----------------------|------------|---------|
G|-------------|-----------|------------|----------------------|------------|---------|
D|-------------|-----------|------------|----------------------|------------|---------|
A|-------------|-----------|------------|----------------------|------------|---------|
E|-------------|-----------|------------|----------------------|------------|---------|

e|--------------------------------|
B|-12-14-12-14-12-14-15-11-12-----|
G|--------------------------------|
D|--------------------------------|
A|--------------------------------|
E|--------------------------------|            
Submit corrections



        Wasteland  lessons Hard to play? Try these video lessons and learn fast Wasteland  lessons
        
↑ Back to top | Tablatures and chords for acoustic guitar and electric guitar, ukulele, drums are parodies/interpretations of the original songs. You may use it for private study, scholarship, research or language learning purposes only