Home » A » Against The Current »

Against The Current - In Our Bones Tabs

Artists:  A B C D E F G H I J K L M N O P Q R S T U V W X Y Z # 

In Our Bones Tabs

(ver. 2) Click to play this song!
Against The Current
 Rating:
4.4/5 (14 votes)
                Standard Tuning
No Capo

[Intro]

e|-------x--------x--------x--------x-|
B|---3---x----3---x----3---x----3---x-|
G|---0---x----0---x----0---x----0---x-|  x2
D|-------x--------x--------x--------x-|
A|-3-----x--------x--------x--------x-|
E|-------x--3-----x--0-----x--2-----x-|


[Verse]

e|-------x--------x--------x--------x-||-------x--------x--------x--------x-||
B|---3---x----3---x----3---x----3---x-||---3---x----3---x----3---x----3---x-||
G|---0---x----0---x----0---x----0---x-||---0---x----0---x----0---x----0---x-||
D|-------x--------x--------x--------x-||-------x--------x--------x--------x-||
A|-3-----x--------x--------x--------x-||-3-----x--------x--------x--------x-||
E|-------x--3-----x--0-----x--2-----x-||-------x--3-----x--0-----x--2-----x-||

    "We are wild flowers"               "The city is our field of gold"


e|-------x--------x--------x--------x-||-------x--------x-----2-----------x-||
B|---3---x----3---x----3---x----3---x-||---3---x----3---x-----3-----------x-||
G|---0---x----0---x----0---x----0---x-||---0---x----0---x-----2-----------x-||
D|-------x--------x--------x--------x-||-------x--------x-----0-----------x-||
A|-3-----x--------x--------x--------x-||-3-----x--------x-----------------x-||
E|-------x--3-----x--0-----x--2-----x-||-------x--3-----x-----------------x-||

  "We've got wild fire"                 "In our bones"


[Pre-Chrous]

e|-------x--------x--------x--------x-||-------x--------x--------x--------x-||
B|---3---x----3---x----3---x----3---x-||---3---x----3---x----3---x----3---x-||
G|---0---x----0---x----0---x----0---x-||---0---x----0---x----0---x----0---x-||
D|-------x--------x--------x--------x-||-------x--------x--------x--------x-||
A|-3-----x--------x--------x--------x-||-3-----x--------x--------x--------x-||
E|-------x--3-----x--0-----x--2-----x-||-------x--3-----x--0-----x--2-----x-||

 "We're born to be electric"   "You and me, we're painting neon under our skin"


e|-------x--------x--------x--------x-||-------x--------x-----2-----------x-||
B|---3---x----3---x----3---x----3---x-||---3---x----3---x-----3-----------x-||
G|---0---x----0---x----0---x----0---x-||---0---x----0---x-----2-----------x-||
D|-------x--------x--------x--------x-||-------x--------x-----0-----------x-||
A|-3-----x--------x--------x--------x-||-3-----x--------x-----------------x-||
E|-------x--3-----x--0-----x--2-----x-||-------x--3-----x-----------------x-||

"It's a force you shouldn't mess with" "Cause you and me, we're glowing bright, radioactive"
 

[Chorus]

e|-------x--------x--------x--------x-||-------x--------x--------x--------x-||
B|---3---x----3---x----3---x----3---x-||---3---x----3---x----3---x----3---x-||
G|---0---x----0---x----0---x----0---x-||---0---x----0---x----0---x----0---x-||
D|-------x--------x--------x--------x-||-------x--------x--------x--------x-||
A|-3-----x--------x--------x--------x-||-3-----x--------x--------x--------x-||
E|-------x--3-----x--0-----x--2-----x-||-------x--3-----x--0-----x--2-----x-||

 "Bruises come and go" "But our hearts beat louder" "Than the thunder..."


e|-------x--------x--------x--------x-||-------x--------x--------x--------x-||
B|---3---x----3---x----3---x----3---x-||---3---x----3---x----3---x----3---x-||
G|---0---x----0---x----0---x----0---x-||---0---x----0---x----0---x----0---x-||
D|-------x--------x--------x--------x-||-------x--------x--------x--------x-||
A|-3-----x--------x--------x--------x-||-3-----x--------x--------x--------x-||
E|-------x--3-----x--0-----x--2-----x-||-------x--3-----x--0-----x--2-----x-||

  "We are not invincible" "But we're both stronger than we know" "In our bones, In our bones"


e|-------x--------x--------x--------x-||
B|---3---x----3---x----3---x----3---x-||
G|---0---x----0---x----0---x----0---x-||
D|-------x--------x--------x--------x-||
A|-3-----x--------x--------x--------x-||
E|-------x--3-----x--0-----x--2-----x-||


[Verse]

e|-------x--------x--------x--------x-||-------x--------x--------x--------x-||
B|---3---x----3---x----3---x----3---x-||---3---x----3---x----3---x----3---x-||
G|---0---x----0---x----0---x----0---x-||---0---x----0---x----0---x----0---x-||
D|-------x--------x--------x--------x-||-------x--------x--------x--------x-||
A|-3-----x--------x--------x--------x-||-3-----x--------x--------x--------x-||
E|-------x--3-----x--0-----x--2-----x-||-------x--3-----x--0-----x--2-----x-||

    "We've got super powers"             "The city is our silver screen"


e|-------x--------x--------x--------x-||-------x--------x-----2-----------x-||
B|---3---x----3---x----3---x----3---x-||---3---x----3---x-----3-----------x-||
G|---0---x----0---x----0---x----0---x-||---0---x----0---x-----2-----------x-||
D|-------x--------x--------x--------x-||-------x--------x-----0-----------x-||
A|-3-----x--------x--------x--------x-||-3-----x--------x-----------------x-||
E|-------x--3-----x--0-----x--2-----x-||-------x--3-----x-----------------x-||

 "Running 'round this little town"      "Wild and free"


[Pre-Chrous]

e|-------x--------x--------x--------x-||-------x--------x--------x--------x-||
B|---3---x----3---x----3---x----3---x-||---3---x----3---x----3---x----3---x-||
G|---0---x----0---x----0---x----0---x-||---0---x----0---x----0---x----0---x-||
D|-------x--------x--------x--------x-||-------x--------x--------x--------x-||
A|-3-----x--------x--------x--------x-||-3-----x--------x--------x--------x-||
E|-------x--3-----x--0-----x--2-----x-||-------x--3-----x--0-----x--2-----x-||

 "We're born to be electric"   "You and me, we're painting neon under our skin"


e|-------x--------x--------x--------x-||-------x--------x-----2-----------x-||
B|---3---x----3---x----3---x----3---x-||---3---x----3---x-----3-----------x-||
G|---0---x----0---x----0---x----0---x-||---0---x----0---x-----2-----------x-||
D|-------x--------x--------x--------x-||-------x--------x-----0-----------x-||
A|-3-----x--------x--------x--------x-||-3-----x--------x-----------------x-||
E|-------x--3-----x--0-----x--2-----x-||-------x--3-----x-----------------x-||

"It's a force you shouldn't mess with" "Cause you and me, we're glowing bright, radioactive"


[Chorus]

e|-------x--------x--------x--------x-||-------x--------x--------x--------x-||
B|---3---x----3---x----3---x----3---x-||---3---x----3---x----3---x----3---x-||
G|---0---x----0---x----0---x----0---x-||---0---x----0---x----0---x----0---x-||
D|-------x--------x--------x--------x-||-------x--------x--------x--------x-||
A|-3-----x--------x--------x--------x-||-3-----x--------x--------x--------x-||
E|-------x--3-----x--0-----x--2-----x-||-------x--3-----x--0-----x--2-----x-||

 "Bruises come and go" "But our hearts beat louder" "Than the thunder..."


e|-------x--------x--------x--------x-||-------x--------x--------x--------x-||
B|---3---x----3---x----3---x----3---x-||---3---x----3---x----3---x----3---x-||
G|---0---x----0---x----0---x----0---x-||---0---x----0---x----0---x----0---x-||
D|-------x--------x--------x--------x-||-------x--------x--------x--------x-||
A|-3-----x--------x--------x--------x-||-3-----x--------x--------x--------x-||
E|-------x--3-----x--0-----x--2-----x-||-------x--3-----x--0-----x--2-----x-||

  "We are not invincible" "But we're both stronger than we know" "In our bones, In our bones"


e|-------x--------x--------x--------x-||-------x--------x--------x--------x-||
B|---3---x----3---x----3---x----3---x-||---3---x----3---x----3---x----3---x-||
G|---0---x----0---x----0---x----0---x-||---0---x----0---x----0---x----0---x-||
D|-------x--------x--------x--------x-||-------x--------x--------x--------x-||
A|-3-----x--------x--------x--------x-||-3-----x--------x--------x--------x-||
E|-------x--3-----x--0-----x--2-----x-||-------x--3-----x--0-----x--2-----x-||

                                                         "In our bones, In our bones"


e|-------x--------x--------x--------x-||-------x--------x--------x--------x-||
B|---3---x----3---x----3---x----3---x-||---3---x----3---x----3---x----3---x-||
G|---0---x----0---x----0---x----0---x-||---0---x----0---x----0---x----0---x-||
D|-------x--------x--------x--------x-||-------x--------x--------x--------x-||
A|-3-----x--------x--------x--------x-||-3-----x--------x--------x--------x-||
E|-------x--3-----x--0-----x--2-----x-||-------x--3-----x--0-----x--2-----x-||


[Verse]

e|-------x--------x--------x--------x-||-------x--------x--------x--------x-||
B|---3---x----3---x----3---x----3---x-||---3---x----3---x----3---x----3---x-||
G|---0---x----0---x----0---x----0---x-||---0---x----0---x----0---x----0---x-||
D|-------x--------x--------x--------x-||-------x--------x--------x--------x-||
A|-3-----x--------x--------x--------x-||-3-----x--------x--------x--------x-||
E|-------x--3-----x--0-----x--2-----x-||-------x--3-----x--0-----x--2-----x-||

    "We are wild flowers"               "The city is our field of gold"


e|-------x--------x--------x--------x-||-------x--------x-----2-----------x-||
B|---3---x----3---x----3---x----3---x-||---3---x----3---x-----3-----------x-||
G|---0---x----0---x----0---x----0---x-||---0---x----0---x-----2-----------x-||
D|-------x--------x--------x--------x-||-------x--------x-----0-----------x-||
A|-3-----x--------x--------x--------x-||-3-----x--------x-----------------x-||
E|-------x--3-----x--0-----x--2-----x-||-------x--3-----x-----------------x-||

  "We've got wild fire"                 "In our bones"


[Chorus]

e|-------x--------x--------x--------x-||-------x--------x--------x--------x-||
B|---3---x----3---x----3---x----3---x-||---3---x----3---x----3---x----3---x-||
G|---0---x----0---x----0---x----0---x-||---0---x----0---x----0---x----0---x-||
D|-------x--------x--------x--------x-||-------x--------x--------x--------x-||
A|-3-----x--------x--------x--------x-||-3-----x--------x--------x--------x-||
E|-------x--3-----x--0-----x--2-----x-||-------x--3-----x--0-----x--2-----x-||

 "Bruises come and go" "But our hearts beat louder" "Than the thunder..."


e|-------x--------x--------x--------x-||-------x--------x--------x--------x-||
B|---3---x----3---x----3---x----3---x-||---3---x----3---x----3---x----3---x-||
G|---0---x----0---x----0---x----0---x-||---0---x----0---x----0---x----0---x-||
D|-------x--------x--------x--------x-||-------x--------x--------x--------x-||
A|-3-----x--------x--------x--------x-||-3-----x--------x--------x--------x-||
E|-------x--3-----x--0-----x--2-----x-||-------x--3-----x--0-----x--2-----x-||

  "We are not invincible" "But we're both stronger than we know" "In our bones, In our bones"


e|-------x--------x--------x--------x-||-------x--------x--------x--------x-||
B|---3---x----3---x----3---x----3---x-||---3---x----3---x----3---x----3---x-||
G|---0---x----0---x----0---x----0---x-||---0---x----0---x----0---x----0---x-||
D|-------x--------x--------x--------x-||-------x--------x--------x--------x-||
A|-3-----x--------x--------x--------x-||-3-----x--------x--------x--------x-||
E|-------x--3-----x--0-----x--2-----x-||-------x--3-----x--0-----x--2-----x-||

                                                         "In our bones, In our bones"


e|-------x--------x--------x--------x-||-------x--------x--------x--------x-||
B|---3---x----3---x----3---x----3---x-||---3---x----3---x----3---x----3---x-||
G|---0---x----0---x----0---x----0---x-||---0---x----0---x----0---x----0---x-||
D|-------x--------x--------x--------x-||-------x--------x--------x--------x-||
A|-3-----x--------x--------x--------x-||-3-----x--------x--------x--------x-||
E|-------x--3-----x--0-----x--2-----x-||-------x--3-----x--0-----x--2-----x-||

                                                         ""In our bones, In our bones"            
Submit corrections

↑ Back to top | Tablatures and chords for acoustic guitar and electric guitar, ukulele, drums are parodies/interpretations of the original songs. You may use it for private study, scholarship, research or language learning purposes only