Home » A » Against The Current »

Against The Current - In Our Bones Tabs

Artists:  A B C D E F G H I J K L M N O P Q R S T U V W X Y Z # 

In Our Bones Tabs

(ver. 1) Click to play this song!
Against The Current
 Rating:
4.3/5 (16 votes)
                [Intro/Main Riff]

e|----------3----------3-------------3-----------------2---------------------|
B|---------------------------------------------------------------------------|
G|---------------------------------------------------------------------------|
D|---------------------------------------------------------------------------|
A|--0h2/3--------------------------------------------------------------------|
E|----------------3-----------0--------------2-------------------------------|


[Variation]

e|----------3----------3-------2~--------------------------------------------|
B|---------------------------------------------------------------------------|
G|---------------------------------------------------------------------------|
D|---------------------------------------------------------------------------|
A|------3--------------------------------------------------------------------|
E|----------------3----------------------------------------------------------|


[Electric guitar part]

e|---15----------------------------------------------------------------------|
B|--------15p13--------------------12h13p12----------------------------------|
G|----------------14p12--------11--------------12----------------------------|
D|------------------------14-------------------------------------------------|
A|---------------------------------------------------------------------------|
E|---------------------------------------------------------------------------|            
Submit corrections

↑ Back to top | Tablatures and chords for acoustic guitar and electric guitar, ukulele, drums are parodies/interpretations of the original songs. You may use it for private study, scholarship, research or language learning purposes only