» » »

Afterhours - Ossigeno Tabs

Artists:  A B C D E F G H I J K L M N O P Q R S T U V W X Y Z # 

Ossigeno Tabs

(ver. 2) Click to play this song!
Afterhours
 Rating:
4/5 (4 votes)

 Ossigeno lessons Tabs too difficult? Try these video lessons and learn fast
 
                "AFTERHOURS
OSSIGENO


standard tuning

solo 1 and 2 are tabbed at the end.

GUITAR 1:
|----------------------------------------------|
|----------------------------------------------|
|----------------------------------------------|
|----------14----------14----------14----------|
|----------------------------------------------|
|--12--12------12--12------12--12------12--12--|
     PLAY 3 TIMES

INTRO PART 2:  GUITAR 1
|----------------------------------------|
|----------------------------------------|
|------0h2p0---2b4---0---2b4-------------|
|--0h2-----------------------------------|
|------------------------------/7vvvvvv\--|
|----------------------------------------|
     PLAY 2 TIMES

INTRO PART 2:  GUITAR 2
|--------------------------------------------|
|--------------------------------------------|
|---------12h14p12------------14-b16---------|
|--12h14------------12h14p12----------7---5\-|
|--------------------------------------------|
|--------------------------------------------|
       PLAY 3 TIMES

GUITAR 1 INTRO 'PART 3'
|------------------------|---------------------|
|------------------------|---------------------|
|--2--0------------------|---------------------|
|--------2--0--2-----/7--|---------------------|
|------------------------|---------------------|
|------------------------|--/7-6-5-4-3-2-1-0---|
                        pm.-----------------|

VERSE (GUITAR 2 ONLY WITH FAST CHORUS EFFECT)
|------------------------------------------------|
|------------------------------------------------|
|--------12-------14-------12------14b16---12----|
|--12h14----12h14----12h14-----------------------|
|------------------------------------------------|
|------------------------------------------------|
     PLAY 2 TIMES, THEN GO BACK TO INTRO

FOR THE PRECHORUS GUITAR 1 (MANUEL) PLAYS THE 'PART 3' INTRO BIT

CHORUS

CHORDS ARE        E       C       D       C           (ALL POWER CHORDS)

PLAY INTRO AGAIN, THEN VERSE, THEN INTRO PART 3 AGAIN, THEN CHORUS ETC

IN 2ND AND 3RD CHORUS AN OVERDUB PLAYS THIS:
|--------------------------------------|
|--------------------------------------|
|---------5--5--5--5/7--7----5--5/7----|
|-2--2----5--5--5--5/7--7----5--5/7----|
|-2--2----3--3--3--3/5--5----3--3/5----|
|-0--0---------------------------------|

bridge:
|-------------------------|
|-------------------------|
|--------------2---2---2--|
|---2---2---2--2---2---2--|
|---2---2---2--0---0---0--|
|---0---0---0-------------|

guitar 2:
|-----------------------------3--|
|-----------------------------3--|
|--2--0--------------------------|
|-------2--0--2---0--2--0--2-----|
|--------------------------------|
|--------------------------------|

SOLOS

|----------------------------------------------|
|----------------------------------------------|
|------0-2----0h2p0---0h2p0----0h2p0-----0-2---|
|--0h2-----0h2-----0h2------0h2------0h2-------|
|----------------------------------------------|
|----------------------------------------------|
solo 1 guitar 1

|-----------------------------------------------------|
|-----------------------------------------------------|
|-----------------------------------------------------|
|-----------------------------------------------------|
|-10h12p10h12p10h12p10h12p10--12b14--12b14r12-10------|
|-------------------------------------------------12/-|
solo 1 guitar 2

|-------------------------------------------------|
|-------------------------------------------------|
|-2b4r2p0---0--2b4r2p0---0--2b4r2p0----------------|
|---------2-----------2------------2--0h2p0h2p0h2-|
|-------------------------------------------------|
|-------------------------------------------------|
solo 1 guitar 1

|---------------------------------------------------------------------|
|---------------------------------------------------------------------|
|---------------------------------------------------------------------|
|---------------------------------------------------------------------|
|--12-10----10-12-10----10-12-10----10-12-10----12b14-12b14r12-10-----|
|--------12----------12----------12----------12-------------------12--|
solo 1 guitar 2


|----------------------------------------------|
|----------------------------------------------|
|------0-2----0h2p0---0h2p0----0h2p0-----0-2---|
|--0h2-----0h2-----0h2------0h2------0h2-------|
|----------------------------------------------|
|----------------------------------------------|
solo 2 guitar 1

|--------15---------------------------15--------------|
|--------15---------------------------15--------------|
|-----------------12h14--14b16-----------------12-14--|
|-----------12h14------------------------12h14--------|
|-----------------------------------------------------|
|--12-12------------------------12-12-----------------|
solo 2 guitar 2

|---------------------------------------------------|
|---------------------------------------------------|
|--2b4r2p0--0--2b4r2p0--0-----0h2-0----0h2p0-----0---|
|---------2-----------2---0h2------0h2-------0h2----|
|---------------------------------------------------|
|---------------------------------------------------|
solo 2 guitar 1

|--------15---------------------------15--------------|
|--------15---------------------------15--------------|
|-----------------12h14--14b16-----------------12-14--|
|-----------12h14------------------------12h14--------|
|-----------------------------------------------------|
|--12-12------------------------12-12-----------------|
solo 2 guitar 2

|----------------------------------------------|
|----------------------------------------------|
|-2h3p2h3p2h3p2h3p2h3p2-2b4r2p0--0--2b4r2p0--0--|
|------------------------------2-----------2---|
|----------------------------------------------|
|----------------------------------------------|
solo 2 guitar 1

|--------------------------------------|
|--------------------------------------|
|--------------------------------------|
|----------5-5----------------5-5------|
|------5-7-----7-5-7------5-7-----5-7--|
|--5-7----------------5-7--------------|
solo 2 guitar 2

|----------------------------------------------|
|----------------------------------------------|
|------0-2----0h2p0---0h2p0----0h2p0-----0-2---|
|--0h2-----0h2-----0h2------0h2------0h2-------|
|----------------------------------------------|
|----------------------------------------------|
solo 2 guitar 1

|----------------------------------------|
|----------------------------------------|
|----------------------------------------|
|----------5-5---------------5--------5--|
|------5-7-----7-5-7-----5-7---7--5h7----|
|--5-7---------------5-7-----------------|
solo 2 guitar 2

|-----------------------------------|
|-----------------------------------|
|--2b4--2b4--2b4--2b4-2b4-2b4-2--0--|
|-----------------------------------|
|-----------------------------------|
|-----------------------------------|
solo guitar 1

|---------------------------------------------------------------------|
|---------------------------------------------------------------------|
|---------------------------------------------------------------------|
|---------------------------------------------------------------------|
|--12-10----10-12-10----10-12-10----10-12-10----12b14-12b14r12-10--10-|
|--------12----------12----------12----------12-----------------------|
solo 2 guitar 2

|----------------------------------------------|
|----------------------------------------------|
|------0-2----0h2p0---0h2p0----0h2p0-----0-2---|
|--0h2-----0h2-----0h2------0h2------0h2-------|
|----------------------------------------------|
|----------------------------------------------|
solo 2 guitar 1              fade out....

|--------15---------------------------15--------------|
|--------15---------------------------15--------------|
|-----------------12h14--14b16-----------------12-14--|
|-----------12h14------------------------12h14--------|
|-----------------------------------------------------|
|--12-12------------------------12-12-----------------|
solo guitar 2               fade out....


that should all be about 95% correct, any comments corrections etc just e-mail me
"            
Submit corrections


        Ossigeno lessons Hard to play? Try these video lessons and learn fast Ossigeno lessons
        
↑ Back to top | Tablatures and chords for acoustic guitar and electric guitar, ukulele, drums are parodies/interpretations of the original songs. You may use it for private study, scholarship, research or language learning purposes only