» » »

Afterhours - La Verità Che Ricordavo Tabs

Artists:  A B C D E F G H I J K L M N O P Q R S T U V W X Y Z # 

La Verità Che Ricordavo Tabs

(ver. 1) Click to play this song!
Afterhours
 Rating:
4/5 (4 votes)

 La Verità Che Ricordavo lessons Tabs too difficult? Try these video lessons and learn fast
 
                Standard tuning: E A D G B e

Verse light distorted x2:
-|--------------------------------------------------------------------------|-
-|--------------------------------------------------------------------------|-
-|--------------------------------------------------------------------------|-
-|-4--4--4-4-4---4--4--4--4--4-4-4---4--4--4-4-4---4--4--4--4--4-4-4--------|-
-|-4--4--4-4-4---4--4--4--4--4-4-4---4--4--4-4-4---4--4--4--4--4-4-4--------|-
-|-2--2--2-2-2---2--2--2--2--2-2-2---2--2--2-2-2---2--2--2--2--2-2-2--------|-
                                                                              
Pre-chorus:
-|--------------------------------------------------------------------------|-
-|--------------------------------------------------------------------------|-
-|--------------------------------------------------------------------------|-
-|-4--4--4-4-4---4--4--4--4--4-4-4---5--5--5-5-5---5--5--5--5---------------|-
-|-4--4--4-4-4---4--4--4--4--4-4-4---5--5--5-5-5---5--5--5--5---------------|-
-|-2--2--2-2-2---2--2--2--2--2-2-2---3--3--3-3-3---3--3--3--3---------------|-
                            
                     distortion in   ^                                                                              

Chorus x2:
-|--------------------------------------------------------------------------|-
-|--------------------------------------------------------------------------|-
-|-----------------------------------4------4------4-4-5-5------5-5-x-------|-
-|-4------4------4-4-4-4-------4-4-4-4------4------4-4-5-5------5-5-x-------|-
-|-4------4------4-4-4-4-------4-4-4-2------2------2-2-3-3------3-3-x-------|-
-|-2------2------2-2-2-2-------2-2-2----------------------------------------|-

Guitar after first chorus clean:
-|--------------------------------------------------------------------------|-
-|--------------------------------------------------------------------------|-
-|-7--7-7-7--7-7-7--7-7-7-/-10-10-/-7-7--7-7-7--7-7-7--7-7-7-/-10-10-/-7----|-
-|--------------------------------------------------------------------------|-
-|-5--5-5-5--5-5-5--5-5-5-/-8--8--/-5-5--5-5-5--5-5-5--5-5-5-/-8--8--/-5----|-
-|--------------------------------------------------------------------------|-
                                                                              

Verse x2:
-|--------------------------------------------------------------------------|-
-|--------------------------------------------------------------------------|-
-|--------------------------------------------------------------------------|-
-|-4--4--4-4-4---4--4--4--4--4-4-4---4--4--4-4-4---4--4--4--4--4-4-4--------|-
-|-4--4--4-4-4---4--4--4--4--4-4-4---4--4--4-4-4---4--4--4--4--4-4-4--------|-
-|-2--2--2-2-2---2--2--2--2--2-2-2---2--2--2-2-2---2--2--2--2--2-2-2--------|-
                                                                              
Pre-chorus:
-|--------------------------------------------------------------------------|-
-|--------------------------------------------------------------------------|-
-|--------------------------------------------------------------------------|-
-|-4--4--4-4-4---4--4--4--4--4-4-4---5--5--5-5-5---5--5--5--5---------------|-
-|-4--4--4-4-4---4--4--4--4--4-4-4---5--5--5-5-5---5--5--5--5---------------|-
-|-2--2--2-2-2---2--2--2--2--2-2-2---3--3--3-3-3---3--3--3--3---------------|-
                            
                     distortion in   ^                                                                              

Chorus x2:
-|--------------------------------------------------------------------------|-
-|--------------------------------------------------------------------------|-
-|-----------------------------------4------4------4-4-5-5------5-5-x-------|-
-|-4------4------4-4-4-4-------4-4-4-4------4------4-4-5-5------5-5-x-------|-
-|-4------4------4-4-4-4-------4-4-4-2------2------2-2-3-3------3-3-x-------|-
-|-2------2------2-2-2-2-------2-2-2----------------------------------------|-

Violin after second chorus x2: 
-|--------------------------------------------------------------------------|-
-|-7-p-5-h-8-p-7-p-5-h-7-\-3-//-7---10--7-p-5-h-8-p-7-p-5-h-7-\-3-//-7---10-|-
-|--------------------------------------------------------------------------|-
-|--------------------------------------------------------------------------|-
-|--------------------------------------------------------------------------|-
-|--------------------------------------------------------------------------|-
                                                                              
Verse x2:

Guitar 1:
-|--------------------------------------------------------------------------|-
-|--------------------------------------------------------------------------|-
-|--------------------------------------------------------------------------|-
-|-4--4--4-4-4---4--4--4--4--4-4-4---4--4--4-4-4---4--4--4--4--4-4-4--------|-
-|-4--4--4-4-4---4--4--4--4--4-4-4---4--4--4-4-4---4--4--4--4--4-4-4--------|-
-|-2--2--2-2-2---2--2--2--2--2-2-2---2--2--2-2-2---2--2--2--2--2-2-2--------|-

Guitar 2 w/ effect:
-|--------------------------------------------------------------------------|-
-|-7-p-5-h-8-p-7-p-5-h-7-\-3-//-7---10--7-p-5-h-8-p-7-p-5-h-7-\-3-//-7---10-|-
-|--------------------------------------------------------------------------|-
-|--------------------------------------------------------------------------|-
-|--------------------------------------------------------------------------|-
-|--------------------------------------------------------------------------|-
                                                                              
Pre-chorus:

Guitar 1:
-|--------------------------------------------------------------------------|-
-|--------------------------------------------------------------------------|-
-|--------------------------------------------------------------------------|-
-|-4--4--4-4-4---4--4--4--4--4-4-4---5--5--5-5-5---5--5--5--5---------------|-
-|-4--4--4-4-4---4--4--4--4--4-4-4---5--5--5-5-5---5--5--5--5---------------|-
-|-2--2--2-2-2---2--2--2--2--2-2-2---3--3--3-3-3---3--3--3--3---------------|-
                            
                     distortion in   ^                                                                              

Guitar 2:
-|--------------------------------------------------------------------------|-
-|-7-p-5-h-8-p-7-p-5-h-7-\-3-//-7---10--7-p-5-h-8-p-7-p-5-h-7-\-3-//-7---10-|-
-|--------------------------------------------------------------------------|-
-|--------------------------------------------------------------------------|-
-|--------------------------------------------------------------------------|-
-|--------------------------------------------------------------------------|-

Chorus x2:
-|--------------------------------------------------------------------------|-
-|--------------------------------------------------------------------------|-
-|-----------------------------------4------4------4-4-5-5------5-5-x-------|-
-|-4------4------4-4-4-4-------4-4-4-4------4------4-4-5-5------5-5-x-------|-
-|-4------4------4-4-4-4-------4-4-4-2------2------2-2-3-3------3-3-x-------|-
-|-2------2------2-2-2-2-------2-2-2----------------------------------------|-
            
Submit corrections


        La Verità Che Ricordavo lessons Hard to play? Try these video lessons and learn fast La Verità Che Ricordavo lessons
        
↑ Back to top | Tablatures and chords for acoustic guitar and electric guitar, ukulele, drums are parodies/interpretations of the original songs. You may use it for private study, scholarship, research or language learning purposes only