Home » A » Afterhours »

Afterhours - Ballata Per La Mia Piccola Iena Ballad For My Little Hyena Bass

Artists:  A B C D E F G H I J K L M N O P Q R S T U V W X Y Z # 

Ballata Per La Mia Piccola Iena Ballad For My Little Hyena Bass

(ver. 1) Click to play this song!
Afterhours
Hope it is right, for any fix please post comment.
Spero sia giusta, per qualsiasi correzione postate un commento

PART 1:
G|----------------|----------------|----------------|----------------|
D|----------------|----------------|----------------|----------------|
A|----------------|----------------|----------------|----------------|
E|5-5-5-5-5-5-5-5-|5-5-5-5-5-5-5-5-|3-3-3-3-3-3-3-3-|3-3-3-3-3-3-3-3-|
									 x5
G|----------------|----------------|----------------|----------------|
D|----------------|----------------|----------------|----------------|
A|----------------|----------------|5-5-5-5-5-5-5-5-|5-5-5-5-5-5-5-5-|
E|1-1-1-1-1-1-1-1-|1-1-1-1-1-1-1-1-|----------------|----------------|


PART 2:
G|----------------|----------------|----------------|----------------|
D|----------------|----------------|----------------|----------------|
A|----------------|----------------|----------------|----------------|
E|1-1-1-1-1-1-1-1-|1-1-1-1-1-1-1-1-|0-0-0-0-0-0-0-0-|0-0-0-0-0-0-0-0-|
									x2
G|----------------|----------------|----------------|----------------|
D|----------------|----------------|----------------|----------------|
A|----------------|----------------|----------------|----------------|
E|3-3-3-3-3-3-3-3-|3-3-3-3-3-3-3-3-|5-5-5-5-5-5-5-5-|5-5-5-5-5-5-5-5-|

PART 1:  x3

PART 2:  x2

PART 1:  x4

LAST PART:
G|--------|--------|--------|
D|--------|--------|--------|
A|--------|--------|--------|
E|5-------|3-------|1-------|
            
Submit corrections

↑ Back to top | Tablatures and chords for acoustic guitar and electric guitar, ukulele, drums are parodies/interpretations of the original songs. You may use it for private study, scholarship, research or language learning purposes only