» » »

Afterhours - Elymania Tabs

Artists:  A B C D E F G H I J K L M N O P Q R S T U V W X Y Z # 

Elymania Tabs

(ver. 2) Click to play this song!
Afterhours
 Rating:
4/5 (4 votes)

 Elymania lessons Tabs too difficult? Try these video lessons and learn fast
 
                AFTERHOURS

ELYMANIA

please rate my tabs!!!

Dropped-D tuning

|--------------------------------------|
|--------------------------------------|
|--------------------------------------|
|--6-6-6-6--9-9-9-9--4-4-4-4--2-2-2-2--|
|--6-6-6-6--9-9-9-9--4-4-4-4--2-2-2-2--|
|--6-6-6-6--9-9-9-9--4-4-4-4--2-2-2-2--|
intro/ verse

|---------------------------------------------------------|
|---------------------------------------------------------|
|---------------------------------------------------------|
|--9-9-9-9-9--11-11-11-11-11--6-6-6-6-6--2-2-2-2-2-2-2-2--|
|--9-9-9-9-9--11-11-11-11-11--6-6-6-6-6--2-2-2-2-2-2-2-2--|
|--9-9-9-9-9--11-11-11-11-11--6-6-6-6-6--2-2-2-2-2-2-2-2--|
pre-chorus

|------------------------------------|----------------------------------|
|------------------------------------|----------------------------------|
|------------------------------------|----------------------------------|
|--9-9-9--6-6-6-6--2-2-2-2--0-0-0-0--|--9-9-9--6-6-6-14-14-14-11-11-11--|
|--9-9-9--6-6-6-6--2-2-2-2--0-0-0-0--|--9-9-9--6-6-6-14-14-14-11-11-11--|
|--9-9-9--6-6-6-6--2-2-2-2--0-0-0-0--|--9-9-9--6-6-6-14-14-14-11-11-11--|
chorus                                  this played at end of chorus 2 and 3 only

|------------------------------------|
|------------------------------------|
|------------------------------------|
|--6-6-6-6-6-6-6-6--2-2-2-2-2-2-2-2--|
|--6-6-6-6-6-6-6-6--2-2-2-2-2-2-2-2--|
|--6-6-6-6-6-6-6-6--2-2-2-2-2-2-2-2--|
bridge/outro

that's it. email with suggestions.
            
Submit corrections


        Elymania lessons Hard to play? Try these video lessons and learn fast Elymania lessons
        
↑ Back to top | Tablatures and chords for acoustic guitar and electric guitar, ukulele, drums are parodies/interpretations of the original songs. You may use it for private study, scholarship, research or language learning purposes only