» » »

Young The Giant, Apartment Tabs (ver.1)

Artists:  A B C D E F G H I J K L M N O P Q R S T U V W X Y Z # 

Apartment Tabs (ver.1)

Young The Giant Tabs
 Rating:
3/5 (6 votes)
Apartment lessons Tabs too difficult? Try these video lessons and learn fast
                -----------------------------------------------------------------------------
-----------------------------------------------------------------------------

Tuning:standard

Intro 
e|-0-0-0--0-0-0--0-0--0-0-0--0-0-0----5-5-5--5-5-5--0--0-0-0--0-0-0-|
B|-0-0-0--0-0-0--7\5--5-5-5--5-5-5--7-5-5-5--5-5-5--7\-0-0-0--0-0-0-|
G|-4-4-4--4-4-4--6\4--4-4-4--4-4-4--7-6-6-6--6-6-6--6\-4-4-4--4-4-4-| x 3
D|-4-4-4--4-4-4--7\5--5-5-5--5-5-5--7-5-5-5--5-5-5--7\-4-4-4--4-4-4-|
A|-5-5-5--5-5-5---------------------9\7-7-7--7-7-7-----5-5-5--5-5-5-|
E|-x-x-x--x-x-x-----------------------5-5-5--5-5-5-----x-x-x--x-x-x-|

e|----------5-5-----------7-7-----------5-5--55555555-|
B|----------7-7-----------8-8-----------5-5--77777777-|
G|----------6-6-----------7-7-----------6-6--66666666-| x 2
D|----------7-7-----------9-9-----------5-5--77777777-|
A|-2-0-2/5--5-5--2-0-2/7--7-7--2-0-2-2--7-7--55555555-|
E|--------------------------------------5-5-----------|

Chorus
D Am G 
sounds alright

solo
e|------------------------------------------------------|
B|-0-------0--------------------------------------------|
G|-11\9\6--11\9\6--6/9/11~------14-(14)----14-14-12-11~-|
D|---------------------------12---------12--------------|
A|------------------------------------------------------|
E|------------------------------------------------------|


   
************************************

| /   slide up
| \   slide down
| h   hammer-on
| p   pull-off
| ~   vibrato
| +   harmonic
| x   Mute note
| b   Bend
| pb  Pre-bend
| br  Bend release
| pbr Pre-bend release
| brb Bend release bend

************************************
            
Submit corrections

comments powered by Disqus
↑ Back to top | Young The Giant Tabs for Apartment. Lyrics for acoustic guitar and electric guitar. Tablatures and chords are parodies/interpretations of the original songs. You may use it for private study, scholarship, research or language learning purposes only