» » »

Young The Giant, Apartment Bass tabs (ver.1)

Artists:  A B C D E F G H I J K L M N O P Q R S T U V W X Y Z # 

Apartment Bass tabs (ver.1)

Young The Giant Tabs
Rating:
5/5 (3 votes)
Apartment lessons Tabs too difficult? Try these video lessons and learn fast
                



All tabs by Pedro Zappa
-----------------------------------------------------------------------------
-----------------------------------------------------------------------------


1. Apartment


Verse 1

(wait)

G||--------------------|--------------------|
D||-4------------------|--------------------|
A||---5--5-5--5-5--5---|---7--7-7--7-7--7---|
E||------------------5-|-7----------------5-|
    i    i    i    i     i    i    i    i
G||--------------------|--------------------||  x2
D||-7------------------|--------------------||
A||---7--7-7--7-7--7---|---5--5-5--5-5--5-5-||
E||------------------5-|-7------------------||
    i    i    i    i     i    i    i    i

Verse 1.5

G||--------------------|--------------------|
D||-4------------------|--------------------|
A||---5--5-5--5-5--5---|---7--7-7--7-7--7---|
E||------------------5-|-7----------------5-|
    i    i    i    i     i    i    i    i
G||--------------------|--------------------||  x2
D||-7------------------|--------------------||
A||---7--7-7--7-7--7---|---5--5-5--5-5--5-5-||
E||------------------5-|-7------------------||
    i    i    i    i     i    i    i    i

Pre-Chorus 1

G||--------------------|--------------------|
D||--------------------|--------------------|
A||-0-------------/5\--|-0-------------/5\--|
E||--------------------|--------------------|
    i    i    i    i     i    i    i    i
G||--------------------|--------------------|
D||--------------------|--------------------|
A||-0-0--0-0--0-0--0-0-|-0-0--0-0--0-0--0/--|
E||--------------------|--------------------|
    i    i    i    i     i    i    i    i
G||--------------------|--------------------|
D||--------------------|--------------------|
A||-12--------------\--|--------------------|
E||-10--------------\--|--------------------|
    i    i    i    i     i    i    i    i
G||--------------------|--------------------|
D||--------------------|--------------------|
A||--------------------|--------------------|
E||--------------------|--------------------|
    i    i    i    i     i    i    i    i

Chorus 1

G||--------------------|--------------------|
D||--------------------|--------------------|
A||-5--5---5---5---5---|--------------------|
E||------------------3-|-5--5---5---5---5-2-|
    i    i    i    i     i    i    i    i
G||--------------------|--------------------||  x2
D||--------------------|--------------------||
A||--------------------|--------------------||
E||-3--3---3---3--23-0-|-3--3---3---3--23-0-||
    i    i    i    i     i    i    i    i
G||--------------------|--------------------|
D||-4------------------|-4------------------|
A||---5--2-0-------0---|---5--2-0-------7---|
E||--------------------|--------------------|
    i    i    i    i     i    i    i    i

Verse 2

G||--------------------|--------------------|
D||--------------------|--------------------|
A||-5-5--5-5--5-5------|-7-7--7-7--7-7------|
E||----------------5-7-|----------------5-7-|
    i    i    i    i     i    i    i    i
G||--------------------|--------------------||  x4
D||--------------------|--------------------||
A||-7-7--7-7--7-7------|-5-5--5-5--5-5------||
E||----------------5-7-|----------------5-7-||
    i    i    i    i     i    i    i    i
G||--------------------|--------------------|
D||--------------------|--------------------|
A||-5-5--5-5--5-5------|-7-7--7-7--7-7------|
E||----------------5-7-|----------------5-7-|
    i    i    i    i     i    i    i    i
G||--------------------|--------------------||
D||--------------------|--------------------||
A||-7-7--7-7--7-7------|-5-5--5-5--5-5--5-2-||
E||----------------5-7-|--------------------||
    i    i    i    i     i    i    i    i

Pre-Chorus 2

G||--------------------|--------------------|
D||--------------------|--------------------|
A||-0-------------/5\--|-0-------------/5\--|
E||--------------------|--------------------|
    i    i    i    i     i    i    i    i
G||--------------------|--------------------|
D||--------------------|--------------------|
A||-0-0--0-0--0-0--0-0-|-0-0--0-0--0-0--0-0-|
E||--------------------|--------------------|
    i    i    i    i     i    i    i    i

Chorus 2

G||--------------------|--------------------|
D||--------------------|--------------------|
A||-5--5---5---5---5---|--------------------|
E||------------------3-|-5--5---5---5---5-2-|
    i    i    i    i     i    i    i    i
G||--------------------|--------------------||  x2
D||--------------------|--------------------||
A||--------------------|--------------------||
E||-3--3---3---3--23-0-|-3--3---3---3---3-0-||
    i    i    i    i     i    i    i    i
G||--------------------|--------------------|
D||--------------------|--------------------|
A||-9----7-7--9----12--|--------------------|
E||--------------------|-5--5---5---5---5-2-|
    i    i    i    i     i    i    i    i
G||--------------------|--------------------||
D||--------------------|--------------------||
A||--------------------|--------------------||
E||-3--3---3---3--23-0-|-3--3---3---3---3-0-||
    i    i    i    i     i    i    i    i
G||--------------------|--------------------|
D||--------------------|--------------------|
A||-9----7-7--9----12--|--------------------|
E||--------------------|-5--5---5---5---5-2-|
    i    i    i    i     i    i    i    i
G||--------------------|--------------------||
D||--------------------|--------------------||
A||--------------------|-----------4444-4-4-||
E||-3333-3-3--5555-5-5-|-7777-7-7-----------||
    i    i    i    i     i    i    i    i

G||--------------------|--------------------|
D||--------------------|--------------------|
A||-5--5---5---5---5---|--------------------|
E||------------------3-|-5--5---5---5---5-2-|
    i    i    i    i     i    i    i    i
G||--------------------|--------------------||
D||--------------------|--------------------||
A||--------------------|--------------------||
E||-3--3---3---3--23-0-|-3--3---3---3---3-0-||
    i    i    i    i     i    i    i    i
G||--------------------|--------------------|
D||--------------------|--------------------|
A||-5--5---5---5---5---|--------------------|
E||------------------3-|-5--5---5---5---5-2-|
    i    i    i    i     i    i    i    i
G||--------------------|--------------------||
D||--------------------|--------------------||
A||-7--7---7---7---7---|--------------------||
E||------------------0-|-3--3---3---3---3-0-||
    i    i    i    i     i    i    i    i

G||--------------------|--------------------|
D||--------------------|--------------------|
A||-5---55-5---5-------|--------------------|
E||----------------5---|-3---33-3---3-----0-|
    i    i    i    i     i    i    i    i
G||--------------------|--------------------||
D||--------------------|--------------------||
A||--------------------|-5---55-5---5-------||
E||-5---55-5---5-----3-|------------------5-||
    i    i    i    i     i    i    i    i
G||--------------------|--------------------|
D||--------------------|--------------------|
A||-5---55-5---5-------|--------------------|
E||----------------5---|-3---33-3---3-----0-|
    i    i    i    i     i    i    i    i
G||--------------------|--------------------||-----|
D||--------------------|--------------------||-----|
A||--------------------|-5---55-5---5-------||-5---|
E||-5---55-5---5-----3-|--------------------||-----|
    i    i    i    i     i    i    i    i


-----------------------------------------------------------------------------
-----------------------------------------------------------------------------
            

comments powered by Disqus
↑ Back to top | Young The Giant Bass for Apartment. Lyrics for acoustic guitar and electric guitar. Tablatures and chords are parodies/interpretations of the original songs. You may use it for private study, scholarship, research or language learning purposes only