» » »

Young The Giant, Apartment Tabs (ver.2)

Artists:  A B C D E F G H I J K L M N O P Q R S T U V W X Y Z # 

Apartment Tabs (ver.2)

Young The Giant Tabs
Rating:
5/5 (4 votes)
Apartment lessons Tabs too difficult? Try these video lessons and learn fast
                So this is most of Apartment, at least the gist of it. I'll leave the rest up to 
you because the chords are somewhat repetitive.
{The off beat transition chords sound odd played alone, if you strum them quickly 
like he does in the song it will sound better}


                            
e|-10---6----3---8----5---0----5---|
B|-12---6----3---7----7---0----5---|
G|-12---8----5---7----7---7----4---|
D|-11---7----4---7----6---6----0---|  x6
A|-0----8----5---0----5---7----0---|
E|-0----6----3---0----5---0----0---|  

After leaving my apartment
I feel this cold inside me
It howls away all through the market
It calls your name

oooh oooh
oooh oooh

On my way to your apartment
I write for fear of silence
You carved a boat to sail my shadow
Now I walk alone

 e|-10--5----10--5----10---5---5---5------|
 B|-12--5----12--5----12---5---5---5------|
 G|-12--7----12--7----12---7---7---7------|
 D|-11--6----11--6----11---6---6---6------|
 A|- 0--7---- 0--7---- 0---7---7---7------|
 E|- 0--6---- 0--5---- 0---5---5---5------|

oooh alright, alright

e|-10---8----3--|
B|-12---8----3--|
G|-12---9----5--| x3
D|-11---10---4--|
A|-10---9----5--|
E|-10---8----3--|

I hit the sidewalk, and this is how it starts
Caught in a wrinkle when things are fallin apart

e|-10---6----3---8----5---0----5---|
B|-12---6----3---7----7---0----5---|
G|-12---8----5---7----7---7----4---|
D|-11---7----4---7----6---6----0---| x4
A|-0----8----5---0----5---7----0---|
E|-0----6----3---0----5---0----0---|

After leaving your apartment
I hit the coast by nightfall 
So sure to keep you dreamin
You understood

Oooh, I know, you understood
Yes sir, it shows, I was no good

e|-10--5----10--5----10---5---5---5------|
B|-12--5----12--5----12---5---5---5------|
G|-12--7----12--7----12---7---7---7------|
D|-11--6----11--6----11---6---6---6------| 
A|- 0--7---- 0--7---- 0---7---7---7------|
E|- 0--6---- 0--5---- 0---5---5---5------|


ahh, ahh, ahh alright, alright 

e|-10---8----3--|
B|-12---8----3--|
G|-12---10---5--|
D|-11---9----4--| x2
A|-10---10---5--|
E|-10---8----3--|

I hit the sidewalk, and this is how it starts
Caught in a wrinkle when things are fallin apart

e|-10---8----3--|
B|-10---10---3--|
G|-12---10---5--|
D|-11---9----4--| x2
A|-12---8----5--|
E|-10---8----3--|

cause sooner or later this is bound to stop
Come on lets save her but were falling hard

e|-10-----3-------5-------5---|
B|-12-----3-------7-------5---|
G|-12-----5-------7-------4---|
D|-11-----4-------6-------0---|
A|-0------5-------5-------0---|
E|-0------3-------5-------0---|
After leaving your apartment
I hear the cold
            

comments powered by Disqus
↑ Back to top | Young The Giant Tabs for Apartment. Lyrics for acoustic guitar and electric guitar. Tablatures and chords are parodies/interpretations of the original songs. You may use it for private study, scholarship, research or language learning purposes only