» » »

Cough Syrup Bass tabs (ver.1)

Artists:  A B C D E F G H I J K L M N O P Q R S T U V W X Y Z # 

Cough Syrup Bass tabs (ver.1)

Young The Giant
Rating:
5/5 (1 vote)

Hard to play? Try these video lessons and learn fast.
                Young the Giant
Bass


Intro - No Bass


Verse 1
X2
|------------------------------------------------------------------|
|--0-0-0-0-0-0-0-0-0-0-0-0-0-0-0-0---------------------------------|
|----------------------------------0-0-0-0-0-0-0-0-0-0-0-0-0-0-0-0-|
|------------------------------------------------------------------|

|------------------------------------------------------------------|
|--5-5-5-5-5-5-5-5-5-5-5-5-5-5-5-5---------------------------------|
|----------------------------------0-0-0-0-0-0-0-0-0-0-0-0-0-0-0-0-|
|------------------------------------------------------------------|

Chorus
|------------------------------------------------------------------|
|--9-9-9-9-9-9-9-9-9-9-9-9-9-9-9-9-7-7-7-7-7-7-7-7-7-7-7-7-7-7-6-6-|
|------------------------------------------------------------------|
|------------------------------------------------------------------|

|------------------------------------------------------------------|
|--5-5-5-5-5-5-5-5-9-9-9-9-9-9-9-9-7-7-7-7-7-7-7-7-7-7-7-7-7-7-7-7-|
|------------------------------------------------------------------|
|------------------------------------------------------------------|

|------------------------------------------------------------------|
|--5-5-5-5-5-5-5-5-9-9-9-9-9-9-9-9-7-7-7-7-7-7-7-7-7-7-7-7-7-7-7-7-|
|------------------------------------------------------------------|
|------------------------------------------------------------------|

Bridge
|------------------------------------------------------------------|
|--0-0-0-0-0-0-0-0-0-0-0-0-0-0-0-0---------------------------------|
|----------------------------------0-0-0-0-0-0-0-0-0-0-0-0-0-0-0-0-|
|------------------------------------------------------------------|

|------------------------------------------------------------------|
|--5-5-5-5-5-5-5-5-5-5-5-5-5-5-5-5---------------------------------|
|----------------------------------0-0-0-0-0-0-0-0-0-0-0-0-0-0-0-0-|
|------------------------------------------------------------------|

Verse 2
X2
|------------------------------------------------------------------|
|--0-0-0-0-0-0-0-0-0-0-0-0-0-0-0-0---------------------------------|
|----------------------------------0-0-0-0-0-0-0-0-0-0-0-0-0-0-0-0-|
|------------------------------------------------------------------|

|------------------------------------------------------------------|
|--5-5-5-5-5-5-5-5-5-5-5-5-5-5-5-5---------------------------------|
|----------------------------------0-0-0-0-0-0-0-0-0-0-0-0-0-0-0-0-|
|------------------------------------------------------------------|

Chorus 2
|------------------------------------------------------------------|
|--9-9-9-9-9-9-9-9-9-9-9-9-9-9-9-9-7-7-7-7-7-7-7-7-7-7-7-7-7-7-6-6-|
|------------------------------------------------------------------|
|------------------------------------------------------------------|

|------------------------------------------------------------------|
|--5-5-5-5-5-5-5-5-9-9-9-9-9-9-9-9-7-7-7-7-7-7-7-7-7-7-7-7-7-7-7-7-|
|------------------------------------------------------------------|
|------------------------------------------------------------------|

|------------------------------------------------------------------|
|--9-9-9-9-9-9-9-9-9-9-9-9-9-9-9-9-7-7-7-7-7-7-7-7-7-7-7-7-7-7-7-7-|
|------------------------------------------------------------------|
|------------------------------------------------------------------|

|------------------------------------------------------------------|
|--5-5-5-5-5-5-5-5-9-9-9-9-9-9-9-9-7-7-7-7-7-7-7-7-7-7-7-7-7-7-7-7-|
|------------------------------------------------------------------|
|------------------------------------------------------------------|

Break
(No Bass)

Instrumental X3
|------------------------------------------------------------------|
|--0-0-0-0-0-0-0-0-0-0-0-0-0-0-0-0---------------------------------|
|----------------------------------0-0-0-0-0-0-0-0-0-0-0-0-0-0-0-0-|
|------------------------------------------------------------------|

|------------------------------------------------------------------|
|--5-5-5-5-5-5-5-5-5-5-5-5-5-5-5-5-7-7-7-7-7-7-7-7-7-7-7-7-7-7-7-7-|
|------------------------------------------------------------------|
|------------------------------------------------------------------|

Chorus 3 (Same as chorus 2)
|------------------------------------------------------------------|
|--9-------------------------------7-------------------------------|
|------------------------------------------------------------------|
|------------------------------------------------------------------|

|------------------------------------------------------------------|
|--5-5-5-5-5-5-5-5-9-9-9-9-9-9-9-9-7-7-7-7-7-7-7-7-7-7-7-7-7-7-7-7-|
|------------------------------------------------------------------|
|------------------------------------------------------------------|

|------------------------------------------------------------------|
|--9-9-9-9-9-9-9-9-9-9-9-9-9-9-9-9-7-7-7-7-7-7-7-7-7-7-7-7-7-7-7-7-|
|------------------------------------------------------------------|
|------------------------------------------------------------------|

|------------------------------------------------------------------|
|--5-5-5-5-5-5-5-5-9-9-9-9-9-9-9-9-7-7-7-7-7-7-7-7-7-7-7-7-7-7-7-7-|
|------------------------------------------------------------------|
|------------------------------------------------------------------|

Ending (No Bass)
            
Hard to play? Try these video lessons and learn fast. | Correct




comments powered by Disqus
↑ Back to top | Tablatures and chords are parodies/interpretations of the original songs. You may use it for private study, scholarship, research or language learning purposes only