>
 >
I Got

I Got Bass Tabs

Young The Giant - I Got chords, tabs, tablatures, lyrics

Guitar lessons | Add/correct | Request | Top 50 tabs Artists:  A B C D E F G H I J K L M N O P Q R S T U V W X Y Z 0-9

I Got Bass Tabs – Young The Giant

CD, Sheet music, Poster

Do you like I Got? Share with your friends now
Bass TabsChordsChords v2Chords v3Chords v4TabsUkulele
Young the Giant - I Got (Bass)

This tab is split into sections. See song order below.

Verse Riff

G|------------------------------------------------------------|
D|------------------------------------------------------------|
A|--------------------------------3-4--4--4-4----3-4--4--4-4--|
E|-(3)-4--4--4-4----3-4--4--4-4-------------------------------|

Pre-Chorus

G|---------------------------|
D|---------------------------|
A|--6----6-----6-----4----4--| play more (4) on this string sometimes (listen to the song)
E|---------4-6---6-4---------|

Chorus

G|-------------13-----13--------------------------------------|
D|-------10-13-----------------10-10-10-10-----10-10-10-10----|
A|--11-------------11----11-13--------------10-------------10-|
E|------------------------------------------------------------|

G|----------------------------------------------------------------|
D|--10-11-11-11-11-----11-11-11-11---10-10---10/-13---------------|
A|------------------11-------------------------------------10-13--|
E|--------------------------------------------------11--11--------|

[first ending]

G|-------------10-13-17-------------------------------------|
D|-------10-13-----------8-9-10-10-10-10-----10-10-10-10----|
A|--11------------------------------------10-------------10-|
E|----------------------------------------------------------|

G|------------------------------|
D|--10-11-11-11-11---11-11-11\--|
A|------------------------------|
E|------------------------------|

[second ending]

G|--------13----------------------------------------------|
D|-----------13-10-13-10----10-10-10-10----10-10-10-10----|
A|--11-------------------13-------------10-------------10-|
E|--------------------------------------------------------|

G|----------------------------------------------------------------|
D|--10-11-11-11-11-----11-11-11-11---10-10---10/-13---------------|
A|------------------11-------------------------------------10-13--|
E|--------------------------------------------------11--11--------|

[third ending]

G|---------------15-13-13-13-13----------------------------------|
D|--------10/-13----------------8-9-10-10-10-10-----10--10-10----|
A|--11-------------------------------------------10-----------10-|
E|---------------------------------------------------------------|

G|-----------------------------------------------------------------------------|
D|--10-11-11-11-11\----/11-11-11-11\---/10-10-10-10-10-10-13-13-13-13-13-13----|
A|-----------------------------------------------------------------------------|
E|--------------------------------------------------------------------------4--|

SONG ORDER (come in at 0:18)

Verse Riff x6
Pre-Chorus
Chorus [first ending]
Verse Riff x7
Pre-Chorus
Chorus [second ending]
Verse Riff x4
Chorus [third ending]





Comments


Popular Young The Giant tabs & chords
Cough Syrup 1 Chords
Cough Syrup 2 Chords
Garands At Normandie Chords
Garands At Normandie 1 Chords
God Made Man Chords
Take Me Home Chords
Apartment 2 Tabs
Cough Syrup 2 Tabs
I Got Tabs
Islands Ukulele


Song lyrics



↑ Back to top | Tablatures and chords are parodies/interpretations of the original songs. You may use it for private study, scholarship, research or language learning purposes only
© 2014 AZChords.com Contact us | Privacy policy | DMCA | Add/correct tabs | Request tabs | Top 50 tabs