» » »

You Me At Six, Liquid Confidence Tabs (ver.2)

Artists:  A B C D E F G H I J K L M N O P Q R S T U V W X Y Z # 

Liquid Confidence Tabs (ver.2)

You Me At Six Tabs
Rating:
0/5 (0 votes)
Liquid Confidence lessons Tabs too difficult? Try these video lessons and learn fast
                
My First Tab...please rate and comment!
Listen to the song for the timing :)

Verse 1:

Rhythm:(strum each chord once)

    E    B   C#m   A
e|---0----2----4----0-----|(x4)
B|---0----4----5----2-----|
G|---1----4----6----2-----|
D|---2----4----6----2-----|
A|---2----2----4----0-----|
E|---0----x----x----x-----|

Chorus 1:

Rhythm:(strum each chord 8 times, all down strums)

    E    B   C#m   A    C#m   A
e|---0----2----4----0-----4----0--|(x1)
B|---0----4----5----2-----5----2--|
G|---1----4----6----2-----6----2--|
D|---2----4----6----2-----6----2--|
A|---2----2----4----0-----4----0--|
E|---0----x----x----x-----x----x--|

Lead:
e|--5---5---4---4---5---5---4---4---7---7---4---4---7---7---4---4-----|
B|----5---5---5---5---5---5---5---5---5---5---5---5---5---5---5---5---|
G|--------------------------------------------------------------------|
D|--------------------------------------------------------------------|
A|--------------------------------------------------------------------|
E|--------------------------------------------------------------------|

e|--5---5---4---4---7---7---4---4-----|
B|----5---5---5---5---5---5---5---5---|
G|------------------------------------|
D|------------------------------------|
A|------------------------------------|
E|------------------------------------|

Verse 2:

Rhythm:(strum each chord once)

    E    B   C#m   A
e|---0----2----4----0----|(x5)
B|---0----4----5----2----|
G|---1----4----6----2----|
D|---2----4----6----2----|
A|---2----2----4----0----|
E|---0----x----x----x----|


Chorus 2:

Rhythm:(strum each chord 8 times, all down strums)

    E    B   C#m   A    C#m   A
e|---0----2----4----0-----4----0--|(x2)
B|---0----4----5----2-----5----2--|
G|---1----4----6----2-----6----2--|
D|---2----4----6----2-----6----2--|
A|---2----2----4----0-----4----0--|
E|---0----x----x----x-----x----x--|


Lead:
e|--5---5---4---4---5---5---4---4---7---7---4---4---7---7---4---4-----|
B|----5---5---5---5---5---5---5---5---5---5---5---5---5---5---5---5---|
G|--------------------------------------------------------------------|
D|--------------------------------------------------------------------|
A|--------------------------------------------------------------------|
E|--------------------------------------------------------------------|

e|--5---5---4---4---7---7---4---4-----|(x2)
B|----5---5---5---5---5---5---5---5---|
G|------------------------------------|
D|------------------------------------|
A|------------------------------------|
E|------------------------------------|

Bridge:

Lead:
e|---------------------------------------------------------------------|(x4)
B|---------5----------------5----------------7----------------5--------|
G|-----6-----6---6------6-----6---6------6-----6---6------6-----6---6--|
D|---6---6-----6------6---6-----6------6---6-----6------6---6-----6----|
A|---------------------------------------------------------------------|
E|---------------------------------------------------------------------|

Pre-Chorus Lead:(repeat until chorus)
e|-----------|
B|---4h5-----|
G|---6-------|
D|---6-------|
A|---4-------|
E|-----------|

Chorus 3:

Rhythm:(strum each chord 8 times, all down strums)

   E    B   C#m   A    C#m   A
e|---0----2----4----0-----4----0--|(x2)
B|---0----4----5----2-----5----2--|
G|---1----4----6----2-----6----2--|
D|---2----4----6----2-----6----2--|
A|---2----2----4----0-----4----0--|
E|---0----x----x----x-----x----x--|
 then...
   C#m   A
e|---4----0--|(x1)
B|---5----2--|
G|---6----2--|
D|---6----2--|
A|-- 4----0--|
E|---x----x--|


Lead:(listen to the song for timing)
e|---7p0--0--2--4--5p0--4p0--7p0--5p0--4--5----------------------|(x3)
B|---------------------------------------------------------------|
G|---------------------------------------------------------------|
D|---------------------------------------------------------------|
A|---------------------------------------------------------------|
E|---------------------------------------------------------------|
then...
e|--5---5---4---4---5---5---4---4---7---7---4---4---7---7---4---4-----|(x1)
B|----5---5---5---5---5---5---5---5---5---5---5---5---5---5---5---5---|
G|--------------------------------------------------------------------|
D|--------------------------------------------------------------------|
A|--------------------------------------------------------------------|
E|--------------------------------------------------------------------|

e|--5---5---4---4---7---7---4---4-----|(x2)
B|----5---5---5---5---5---5---5---5---|
G|------------------------------------|
D|------------------------------------|
A|------------------------------------|
E|------------------------------------|

then...
strum E major once to finish
e|----0-------|
B|----0-------|
G|----1-------|
D|----2-------|
A|----2-------|
E|----0-------|

key:
h= hammer-on
p= pull off
x= do not play note
            
Submit corrections

comments powered by Disqus
↑ Back to top | You Me At Six Tabs for Liquid Confidence. Lyrics for acoustic guitar and electric guitar. Tablatures and chords are parodies/interpretations of the original songs. You may use it for private study, scholarship, research or language learning purposes only