>
 >
Liquid Confidence

Liquid Confidence Guitar Tabs

You Me At Six - Liquid Confidence chords, tabs, tablatures, lyrics

Guitar lessons | Add/correct | Request | Top 50 tabs Artists:  A B C D E F G H I J K L M N O P Q R S T U V W X Y Z 0-9

Liquid Confidence Guitar Tabs – You Me At Six

CD, Sheet music, Poster

Do you like Liquid Confidence? Share with your friends now
ChordsChords v2Chords v3Chords v4TabsTabs v2Ukulele
**YOU ME AT SIX - LIQUID CONFIDENCE**
Standard Tuning

h = hammmer on
p = pull off
/ = slide
~ - Hold note
.... - palm mute

This is what I could work out anyways with the Rhythm and Lead parts..


Thanks, Kerry.


Intro + verse - 

Clean guitar

e|--------------------------------    ---------------------------|
B|--------------------------------    ---------------------------|
G|---9~-----8~-----9~-----6~------ x4 ---6~----------------------|
D|---9~-----9~----11~-----7~------    ---7~----------------------|
A|---7~-----9~----11~-----7~------    ---7~----------------------|
E|--------------------------------    ---------------------------|

Chorus - RHYTHM GUITAR!!!

distortion

e|---------------------------------------------------------------|
B|---------------------------------------------------------------|
G|------------------4444444444444444-22222222-44444--------------|
D|-2222222222222222-4444444444444444-22222222-44444--------------|
A|-2222222222222222-2222222222222222-00000000-22222--------------|
E|-0000000000000000----------------------------------------------|

LEAD GUITAR!!!

light distortion

e|----7-----7-----7-----7-----7-----7-----7-----7-----7----7----7--7~--|
B|-4/5---4/5---4/5---4/5---5h7---5h7---5h7---5h7---4/5--4/5--5h7---7~--|
G|---------------------------------------------------------------------|
D|---------------------------------------------------------------------|
A|---------------------------------------------------------------------|
E|---------------------------------------------------------------------|


Verse 2 -

Rhythm (clean)
e|--------------------------------    ---------------------------|
B|--------------------------------    ---------------------------|
G|---9~-----8~-----9~-----6~------ x5 ---66666666----------------|
D|---9~-----9~----11~-----7~------    ---77777777----------------|
A|---7~-----9~----11~-----7~------    ---77777777----------------|
E|--------------------------------    ---------------------------|

lead
 ** plucked with fingers sounds better** (clean)
e|---------------------------------------------------------------|
B|--9-9-9-9h10-7-7-7-9h10-7-7-7----------------------------------|
G|--9-9-9-9----9-9-9-9----9-9-9--9~------------------------------|
D|-------------------------------9~------------------------------|
A|---------------------------------------------------------------|
E|---------------------------------------------------------------|

e|---------------------------------------------------------------|
B|--9-9-9-9h10-7-7-7-9h10-7-7-7----------------------------------|
G|--9-9-9-9----9-9-9-9----9-9-9--9---9--9--9---------------------|x2
D|-------------------------------12-12--9--9---------------------|
A|---------------------------------------------------------------|
E|---------------------------------------------------------------|

this lead part ends at "we are an example of" couldnt figure out the rest! 
so just strum along with the rhythm

Chorus 2

***RHYTHM*** Distortion
e|---------------------------------------------------------------|
B|---------------------------------------------------------------|
G|------------------4444444444444444-22222222-44444444-----------|x2
D|-2222222222222222-4444444444444444-22222222-44444444-----------|
A|-2222222222222222-2222222222222222-00000000-22222222-----------|
E|-0000000000000000----------------------------------------------|

Lead (light distortion)

e|--5-5-4-4-5-5-4-4-7-7-4-4-7-7-4-4-5-5-4-4-7-7-7-7--------------|
B|---5-5-5-5-5-5-5-5-5-5-5-5-5-5-5-5-5-5-5-5-5-5-5-5-------------|
G|---------------------------------------------------------------|x2
D|---------------------------------------------------------------|
A|---------------------------------------------------------------|
E|---------------------------------------------------------------|

                      OR YOU CAN PLAY IT LIKE..

e|-555544445555444477774444777744445555444477777777--------------|
B|-555555555555555555555555555555555555555555555555--------------|
G|---------------------------------------------------------------|x2
D|---------------------------------------------------------------|
A|---------------------------------------------------------------|
E|---------------------------------------------------------------|

Bridge 

RHYTHM!

Distortion 

e|-----------------------    ------------------------------------|
B|-----------------------    -----------5~-55-555555-55555555----|
G|------22--66--44--22---    -----------6~-66-666666-66666666----|
D|--44--22--66--44--22--- x3 --44--22---6~-66-666666-66666666----|
A|--44--00--44--22--00---    --44--22----------------------------|
E|--22-------------------    --22--00----------------------------|  
    ..................         ......         ......
Lead (clean)					     light distortion  
e|-------------------------------------------     ------------------------|
B|------4~--------5~-------7~--------5~------     -5~-55-555555-55555555--|
G|---6-----6-6-6----6-6-6-----6-6-6----6-6---     -6~-66-666666-66666666--|
D|--6-6-----6-6-6----6-6-6-----6-6-6----6---- x4  -6~-66-666666-66666666--|
A|-------------------------------------------     ------------------------|
E|-------------------------------------------     ------------------------|
                                                         ......

Last chorus 

rhythm

distortion
e|---------------------------------------------------------------|
B|---------------------------------------------------------------|
G|------------------4444444444444444-22222222-44444444-----------|
D|-2222222222222222-4444444444444444-22222222-44444444-----------|
A|-2222222222222222-2222222222222222-00000000-22222222-----------|
E|-0000000000000000----------------------------------------------|


lead (light distortion)

e|-7p0-0-2-4--5p0-4p0-7p0-5p0--4/5-------------------------------|
B|---------------------------------------------------------------|
G|---------------------------------------------------------------|x3
D|---------------------------------------------------------------|
A|---------------------------------------------------------------|
E|---------------------------------------------------------------|

Outro -

 Rhythm (distortion)

e|---------------------------------------------------------------|
B|---------------------------------------------------------------|
G|--99999999-44444444-66666666-22222222--------------------------|
D|--99999999-44444444-66666666-22222222--------------------------|x2
A|--77777777-22222222-44444444-00000000--------------------------|
E|---------------------------------------------------------------|

Lead (light distortion)

e|---------------------------------------------------------------|
B|--9-9-9-9h10-7-7-7-9h10-7-7-7----------------------------------|
G|--9-9-9-9----9-9-9-9----9-9-9--9---9--9--9---------------------|x2
D|-------------------------------12-12--9--9---------------------|
A|---------------------------------------------------------------|
E|---------------------------------------------------------------|

End on..

Rhythm - 

e|---------|
B|---------|
G|---------|
D|---2~----|
A|---2~----|
E|---0~----|

Lead - 

e|---------|
B|---------|
G|---9~----|
D|---9~----|
A|---------|
E|---------|


DONE!





Comments


Popular You Me At Six tabs & chords
Fireworks Chords
Underdog 1 Chords
Always Attract 4 Tabs
Always Attract 5 Tabs
Always Attract Intro Tabs
Bite My Tongue 1 Tabs
Bite My Tongue 2 Tabs
Blue Eyes Dont Lie Intro Tabs
Jaws On The Floor 1 Tabs
Little Bit Of Truth Ukulele


Song lyrics



↑ Back to top | Tablatures and chords are parodies/interpretations of the original songs. You may use it for private study, scholarship, research or language learning purposes only
© 2014 AZChords.com Contact us | Privacy policy | DMCA | Add/correct tabs | Request tabs | Top 50 tabs